Home » B » Bouncing Souls »

Bouncing Souls - Letter From Iraq Tabs

Artists:  A B C D E F G H I J K L M N O P Q R S T U V W X Y Z # 

Letter From Iraq Tabs

(ver. 2) Click to play this song!
Bouncing Souls
 Rating:
3.8/5 (5 votes)
                Bouncing Souls
Letter From Iraq
Standard tuning

This song has some very odd strumming patterns, im not sure if i did them 
right I'm going to post this song as chords eventually because it might be
easier to read that way

Also Please Note that the E's should be played with a muted top string
It doesn't matter if you don't I guess, but it sounds better muted.

  A           E           F#          F#
E|----0-----------0------------2-----------2-------|
B|------2-----------0----------2-----------2-------|
G|--------2-----------1----------3-----------3-----|
D|--2-------2---2-------2----------4-----------4---|x2
A|0-----------2-------------4--------4---4-------4-|
E|------------------------2------------2-----------|

  A           E           A            A
E|----2-----------0------------2-----------0-------|
B|------2-----------0------------2-----------2-----|
G|--------2-----------1------------2-----------2---|
D|--2-------2---2-------2---2--------2---2-------2-|
A|0-----------2-----------0------------0-----------|
E|-------------------------------------------------|

  A           E           F#   
E|----0-----------0-------2~---|
B|------2-----------0-----2~---|
G|--------2-----------1---3~---|
D|--2-------2---2-------2-4~---|
A|0-----------2-----------4~---|
E|------------------------2~---|

Verse
  F#5              A5      G#5
E|----------------------------------|
B|----------------------------------|
G|----------------------------------|
D|4444444444444444-77-7-77-6-66-6-66|x4
A|4444444444444444-77-7-77-6-66-6-66|
E|2222222222222222-55-5-55-4-44-4-44|

Pre-Chorus
  A
E|0-0-0000-0-0-0000|
B|2-2-2222-2-2-2222|
G|2-2-2222-2-2-2222|
D|2-2-2222-2-2-2222|
A|0-0-0000-0-0-0000|
E|-----------------|

Chorus
  A        E      F#
E|0-0-0000-0-0-00-2-2-2222-2-2-2222|
B|2-2-2222-0-0-00-2-2-2222-2-2-2222|
G|2-2-2222-1-1-11-3-3-3333-3-3-3333|
D|2-2-2222-2-2-22-4-4-4444-4-4-4444|x2
A|0-0-0000-2-2-22-4-4-4444-4-4-4444|
E|---------x-x-xx-2-2-2222-2-2-2222|

   A       E       A
E|-0-00-00-0-00-00-0-00-00-0-00-00-|
B|-2-22-22-0-00-00-2-22-22-2-22-22-|
G|-2-22-22-1-11-11-2-22-22-2-22-22-|
D|-2-22-22-2-22-22-2-22-22-2-22-22-|
A|-0-00-00-2-22-22-0-00-00-0-00-00-|
E|---------x-xx-xx-----------------|

  A        E      F#
E|0-0-0000-0-0-00-2~---|
B|2-2-2222-0-0-00-2~---|
G|2-2-2222-1-1-11-3~---|
D|2-2-2222-2-2-22-4~---|
A|0-0-0000-2-2-22-4~---|
E|---------x-x-xx-2~---|

Verse
  F#5              A5     G#5
E|----------------------------------|
B|----------------------------------|
G|----------------------------------|
D|4444444444444444-77-7-77-6-66-6-66|x4
A|4444444444444444-77-7-77-6-66-6-66|
E|2222222222222222-55-5-55-4-44-4-44|

Pre-Chorus
  A
E|0-0-0000-0-0-0000|
B|2-2-2222-2-2-2222|
G|2-2-2222-2-2-2222|
D|2-2-2222-2-2-2222|
A|0-0-0000-0-0-0000|
E|-----------------|

Chorus
  A        E      F#
E|0-0-0000-0-0-00-2-2-2222-2-2-2222|
B|2-2-2222-0-0-00-2-2-2222-2-2-2222|
G|2-2-2222-1-1-11-3-3-3333-3-3-3333|
D|2-2-2222-2-2-22-4-4-4444-4-4-4444|x2
A|0-0-0000-2-2-22-4-4-4444-4-4-4444|
E|---------x-x-xx-2-2-2222-2-2-2222|

   A       E       A
E|-0-00-00-0-00-00-0-00-00-0-00-00-|
B|-2-22-22-0-00-00-2-22-22-2-22-22-|
G|-2-22-22-1-11-11-2-22-22-2-22-22-|
D|-2-22-22-2-22-22-2-22-22-2-22-22-|
A|-0-00-00-2-22-22-0-00-00-0-00-00-|
E|---------x-xx-xx-----------------|

  A        E      F#
E|0-0-0000-0-0-00-22222222|
B|2-2-2222-0-0-00-22222222|
G|2-2-2222-1-1-11-33333333|
D|2-2-2222-2-2-22-44444444|
A|0-0-0000-2-2-22-44444444|
E|---------x-x-xx-22222222|

Post-Chorus
  A           E         F#5
E|----0-----------0--------|
B|------2-----------0------|
G|--------2-----------1----|
D|--2-------2---2-------4~-|x2 then pickslide
A|0-----------2---------4~-|
E|----------------------2~-|

Bridge
  A       E       F#
E|0-00-00-0-00-00-2-22-22-2-22-22|
B|2-22-22-0-00-00-2-22-22-2-22-22|
G|2-22-22-1-11-11-3-33-33-3-33-33|
D|2-22-22-2-22-22-4-44-44-4-44-44|x2
A|0-00-00-2-22-22-4-44-44-4-44-44|
E|--------x-xx-xx-2-22-22-2-22-22|

  A       E       A
E|0-00-00-0-00-00-0-00-00-0-00-00|
B|2-22-22-0-00-00-2-22-22-2-22-22|
G|2-22-22-1-11-11-2-22-22-2-22-22|
D|2-22-22-2-22-22-2-22-22-2-22-22|
A|0-00-00-2-22-22-0-00-00-0-00-00|
E|--------x-xx-xx----------------|

  A       E       F#
E|0-00-00-0-00-00-2~---|
B|2-22-22-0-00-00-2~---|
G|2-22-22-1-11-11-3~---|
D|2-22-22-2-22-22-4~---|
A|0-00-00-2-22-22-4~---|
E|--------x-xx-xx-2~---|

Ending
  A           E           F#
E|00-000-00-0000-000-00-0022-222-22-22|
B|22-222-22-2200-000-00-0022-222-22-22|
G|22-222-22-2211-111-11-1133-333-33-33|
D|22-222-22-2222-222-22-2244-444-44-44|x2
A|00-000-00-0022-222-22-2244-444-44-44|
E|------------xx-xxx-xx-xx22-222-22-22|

  A           E           A
E|00-000-00-0000-000-00-0000-000-00-00|
B|22-222-22-2200-000-00-0022-222-22-22|
G|22-222-22-2211-111-11-1122-222-22-22|
D|22-222-22-2222-222-22-2222-222-22-22|x2 there may be a slight break here
A|00-000-00-0022-222-22-2200-000-00-00|
E|------------xx-xxx-xx-xx------------|
            
Submit corrections

↑ Back to top | Tablatures and chords for acoustic guitar and electric guitar, ukulele, drums are parodies/interpretations of the original songs. You may use it for private study, scholarship, research or language learning purposes only