» » »

Bouncing Souls - Late Bloomer Tabs

Artists:  A B C D E F G H I J K L M N O P Q R S T U V W X Y Z # 

Late Bloomer Tabs

(ver. 1) Click to play this song!
Bouncing Souls
 Rating:
4/5 (4 votes)

 Late Bloomer lessons Tabs too difficult? Try these video lessons and learn fast
 
                
Intro:
     
e|---3333--2222--------|
B|---0000--3333--------|
G|---0000--2222--------|
D|---0000--0000--------|  8x
A|---2222--------------|
E|---3333--------------|


Verse:
     
e|---3333--5555--3333--5555----3333--5555--33333333---------
B|---3333--7777--5555--7777----3333--7777--55555555---------
G|---4444--7777--5555--7777----4444--7777--55555555---------
D|---5555--7777--5555--7777----5555--7777--55555555---------
A|---5555--5555--3333--5555----5555--5555--33333333---------
E|---3333----------------------3333-------------------------

e|---3333--5555--77--22--3----3333--55--22--33--------------|
B|---3333--7777--99--44--5----3333--77--44--55--------------|
G|---4444--7777--99--44--5----4444--77--44--55--------------|
D|---5555--7777--99--44--5----5555--77--44--55--------------|
A|---5555--5555--77--22--3----3333--55--22--33--------------|
E|---3333---------------------3333--------------------------|


Chorus:
   
e|---3333--5555--33333333-----------------------------------|
B|---3333--7777--55555555-----------------------------------|
G|---4444--7777--55555555-----------------------------------|
D|---5555--7777--55555555-----------------------------------|
A|---5555--5555--33333333-----------------------------------|
E|---3333---------------------------------------------------|
            
Submit corrections


        Late Bloomer lessons Hard to play? Try these video lessons and learn fast Late Bloomer lessons
        
↑ Back to top | Tablatures and chords for acoustic guitar and electric guitar, ukulele, drums are parodies/interpretations of the original songs. You may use it for private study, scholarship, research or language learning purposes only