» » »

Bouncing Souls - Kid Tabs

Artists:  A B C D E F G H I J K L M N O P Q R S T U V W X Y Z # 

Kid Tabs

(ver. 1) Click to play this song!
Bouncing Souls
 Rating:
4/5 (4 votes)

 Kid lessons Tabs too difficult? Try these video lessons and learn fast
 
                "Kid" by the Bouncing Souls
off the album "Hopeless Romantic"
mxtabs id: coincidentalminorguitar

one guitar, standard tuning.

[====pm====]

drums first, then this "...whoaaaaaa"

e---------------------|    |----------------|
b-----------6666-8888-|    |----------------|
g-5555-7777-----------| x4 |---------101010-| x4
d---------------------|then|-10------101010-|
a---------------------|    |-10------8-8-8--|
e---------------------|    |-8--------------|

verse begins "you're a good kid..." (the rhythm is off, i can't do it right, a pickup or something) play this once

e----------------------------------|
b----------------------------------|
g-------------------------------10-|
d-1010101010101010-33-55-101010-10-|
a-1010101010101010-33-55-101010-8--|
e-8-8-8-8-8-8-8-8--11-33-8-8-8-----|
  [======pm======]       [=pm=]

play the first part once, followed by the second part 4 times

e--------------------------------------|-----------|
b--------------------------------------|-----------|
g--------------------------------------|--------10-|
d-1010101010101010-33-55-1010-77-33-55-|-101010-10-|
a-1010101010101010-33-55-1010-77-33-55-|-101010-8--|
e-8-8-8-8-8-8-8-8--11-33-8-8--55-11-33-|-8-8-8-----|
  [======pm======]                       [=pm=]

then this once

e----------------------------------------------------|
b----------------------------------------------------|
g----------------------------------------------------|
d-1010101010101010-33-55-1010-77-33-55-1010-77-33-55-|
a-1010101010101010-33-55-1010-77-33-55-1010-77-33-55-|
e-8-8-8-8-8-8-8-8--11-33-8-8--55-11-33-8-8--55-11-33-|
  [======pm======]  

chorus "but you'll get by..."

e----------------------------------|
b----------------------------------|
g-5-5-5-4-5-5-5-4-5-5-5-4-7--5--4--| x4
d----------------------------------|
a----------------------------------|
e----------------------------------|

then this (on the last time, let the last note ring)

e-------------------------------|
b-----------------6-6--5-3------|
g-5-----5-4-----5-----------5-4-| x4
d----5-------5------------------|
a-------------------------------|
e-------------------------------|

play these parts again 

e----------------|    
b----------------|    
g---------101010-| x4 
d-10------101010-|
a-10------8-8-8--|    
e-8--------------|

e----------------------------------|
b----------------------------------|
g-------------------------------10-| x1
d-1010101010101010-33-55-101010-10-|
a-1010101010101010-33-55-101010-8--|
e-8-8-8-8-8-8-8-8--11-33-8-8-8-----|
  [======pm======]       [=pm=]  
  
e--------------------------------------|
b--------------------------------------|
g--------------------------------------| x1
d-1010101010101010-33-55-1010-77-33-55-|
a-1010101010101010-33-55-1010-77-33-55-|
e-8-8-8-8-8-8-8-8--11-33-8-8--55-11-33-|
  [======pm======]                     

e----------------------------------|
b----------------------------------|
g-5-5-5-4-5-5-5-4-5-5-5-4-7--5--4--| x4
d----------------------------------|
a----------------------------------|
e----------------------------------|

e-------------------------------|
b-----------------6-6--5-3------|
g-5-----5-4-----5-----------5-4-| x4
d----5-------5------------------|
a-------------------------------|
e-------------------------------|

let the last note ring and that's it. 

Souls rule.


feedback IS appreciated.
            
Submit corrections


        Kid lessons Hard to play? Try these video lessons and learn fast Kid lessons
        
↑ Back to top | Tablatures and chords for acoustic guitar and electric guitar, ukulele, drums are parodies/interpretations of the original songs. You may use it for private study, scholarship, research or language learning purposes only