Home » B » Bouncing Souls »

Bouncing Souls - Born To Lose Tabs

Artists:  A B C D E F G H I J K L M N O P Q R S T U V W X Y Z # 

Born To Lose Tabs

(ver. 2) Click to play this song!
Bouncing Souls
 Rating:
4/5 (4 votes)
                

Intro
E----------------------------
B----------------------------
G----------------------------
D--3--3--2----0--------------
A---------------3--0-1--1----
E-------------------------3--

Chorus
E-----------------
B-----------------
G--------------3--
D--3-3-3-3-3-3-3--
A--3-3-3-3-3-3-1--
E--1-1-1-1-1-1----

Verse PM
E-------------------------------------------------------------------
B-------------------------------------------------------------------
G------------------3-3-3-3-3-3-3-3----------------------------------
D--3-3-3-3-3-3-3-3-3-3-3-3-3-3-3-3-3-3-3-3-3-3-3-3-3-3-3-3-3-3-3-3--
A--3-3-3-3-3-3-3-3-1-1-1-1-1-1-1-1-3-3-3-3-3-3-3-3-3-3-3-3-3-3-3-3--
E--1-1-1-1-1-1-1-1-----------------1-1-1-1-1-1-1-1-1-1-1-1-1-1-1-1--

E-------------------------------------------------------------------
B-------------------------------------------------------------------
G--3-3-3-3-3-3-3-3-3-3-3-3-3-3-3-3----------------------------------
D--3-3-3-3-3-3-3-3-3-3-3-3-3-3-3-3-3-3-3-3-3-3-3-3-3-3-3-3-3-3-3-3--
A--1-1-1-1-1-1-1-1-1-1-1-1-1-1-1-1-3-3-3-3-3-3-3-3-3-3-3-3-3-3-3-3--
E----------------------------------1-1-1-1-1-1-1-1-1-1-1-1-1-1-1-1--

E-------------------------------------------------------------------
B-------------------------------------------------------------------
G----------------------------------3-3-3-3-3-3-3-3-3-3-3-3-3-3-3-3--
D--3-3-3-3-3-3-3-3-3-3-3-3-3-3-3-3-3-3-3-3-3-3-3-3-3-3-3-3-3-3-3-3--
A--3-3-3-3-3-3-3-3-3-3-3-3-3-3-3-3-1-1-1-1-1-1-1-1-1-1-1-1-1-1-1-1--
E--1-1-1-1-1-1-1-1-1-1-1-1-1-1-1-1----------------------------------

E-----------------------------------
B-----------------------------------
G--5-5-5-5-5-5-5-5-5-5-5-5-5-5-5-5--
D--5-5-5-5-5-5-5-5-5-5-5-5-5-5-5-5--
A--3-3-3-3-3-3-3-3-3-3-3-3-3-3-3-3--
E-----------------------------------

Quiet Verse
E-----------------------------1----------------------------1--------------
B--------------------------1----------------------------1-------------0---
G-----------3-----------2----------3--------------------------------2-----
D--3--------3--------3-------------3----------------3------------3--------
A--3--------1--------3-------------1----------------3------------3--------
E--1-----------------1------------------------------1------------1--------

E-------------------------
B-------------------------
G--3---333333333333-------
D--3---333333333333----0--
A--1---111111111111----0--
E----------------------5--
            
Submit corrections

↑ Back to top | Tablatures and chords for acoustic guitar and electric guitar, ukulele, drums are parodies/interpretations of the original songs. You may use it for private study, scholarship, research or language learning purposes only