» » »

Bos Stef - Brief Uit Berlijn Tabs

Artists:  A B C D E F G H I J K L M N O P Q R S T U V W X Y Z # 

Brief Uit Berlijn Tabs

(ver. 1) Click to play this song!
Bos Stef
 Rating:
4/5 (4 votes)

 Brief Uit Berlijn lessons Tabs too difficult? Try these video lessons and learn fast
 
                Play this with an accoustic guitar. 
You will have to listen to the song to get the timing.



h - hammer on
p - pull off
/ - slide up
\ - slide down

     EADGBE
Ab = 456644
Eb = X67776
Db = X45554



Intro:

E-------6-/8-----------------------------------------------
B-----9------11-9-/11--------------------------------------
G---8-----------------8-8---------8-8-/10-8-6-/8-----------
D----------------------------------------------------------
A----------------------------------------------------------
E----------------------------------------------------------

E-------6-/8-8-8-9-p8-8---6-6-----8-9-/11--11-9-8-\6-------
B-----9----------------------------------------------------
G---8------------------------------------------------------
D----------------------------------------------------------
A----------------------------------------------------------
E----------------------------------------------------------



Verse:

Ab                                 Eb	
Ik ben nog één keer Langs het huis gelopen
Db              Eb	
waar jij hebt gewoond

E----------------------------------------------------------
B----------------------------------------------------------
G----------------------------------------------------------
D-------3-/5-6---------------------------------------------
A---6-6----------------------------------------------------
E----------------------------------------------------------

Ab                          Eb
Maar niets is nog zoals het was
Db                   Eb
alsof ik alles heb gedroomd

E----------------------------------------------------------
B----------------------------------------------------------
G------------5---------------------------------------------
D-----5-6-/8-----------------------------------------------
A---6------------------------------------------------------
E----------------------------------------------------------

Ab
Je kent het Kreuzberg
                    Eb
van de Turken en de krakers
Db        Eb
niet meer terug

E----------------------------------------------------------
B----------------------------------------------------------
G----------------------------------------------------------
D---5-5-5-6-/8---------------------------------------------
A----------------------------------------------------------
E----------------------------------------------------------

Ab                             Eb
De meesten zijn voor de nieuwe rijken en de makelaars 
Db             Eb
   weggevlucht



Chorus:

E----------------------------------------------------------
B----------------------------------------------------------
G---------------5------------------------------------------
D---5---5-6--8-----------------------------------6-6-------
A----------------------------------------------------------
E----------------------------------------------------------
    Alleen de sneeuw ligt net als toen

Db                 Eb
Op de daken van de huizen

E----------------------------------------------------------
B----------------------------------------------------------
G---5-6--8----------------------8-8-h10-8------------------
D----------------------------------------------------------
A----------------------------------------------------------
E----------------------------------------------------------
                        Het kan koud zijn

in Berlijn

Db             Eb        Ab
Ik heb geleerd alleen te reizen

E-------6-/8-8-9-p8-6--/8----------------------------------
B-----9-------------------11-9-9---------------------------
G---8-------------------------------8-/10-8-8----8-6-5-5---
D----------------------------------------------------------
A----------------------------------------------------------
E----------------------------------------------------------


Verse:

Ab                    Eb
Bertolt Bercht en Che Guevara
Db                   Eb
aan de muren in jouw kamer

E----------------------------------------------------------
B----------------------------------------------------------
G----------5-----------------------------------------------
D---5-6-/8-------------------------------------------------
A----------------------------------------------------------
E----------------------------------------------------------

Ab                   Eb
Zijn zo goed als wat vergeten
Db                   Eb
want de muur is hier verdwenen

Het communisme is kapot
De idealen
     Ab
zijn verraden
          Eb
En God is dakloos
          Db
want elke kerk
wordt hier 

E--------8-9-9----------------------11---9-8---------------
B---9-11--------------------------9----9-----11-9----------
G----------------------------------------------------------
D----------------------------------------------------------
A----------------------------------------------------------
E----------------------------------------------------------
    verbouwd tot een theater

Ab
Alleen de sneeuw
             Eb
ligt net als toen

E---------------------------------------6-h9---------------
B-------------------------------------9------9-9-----------
G---8-10-/12-8----------------------8----------------------
D----------------------------------------------------------
A----------------------------------------------------------
E----------------------------------------------------------
                 op de daken van de huizen

Ab                   Eb
Het kan koud zijn in Berlijn
Db             Eb        Ab
Ik heb geleerd alleen te reizen

E----------------------------------------------------------
B----------------------------------------------------------
G---5-h6---------------------------------------------------
D---5----5-6-----------------------------------------------
A----------------------------------------------------------
E----------------------------------------------------------
            
Submit corrections


        Brief Uit Berlijn lessons Hard to play? Try these video lessons and learn fast Brief Uit Berlijn lessons
        
↑ Back to top | Tablatures and chords for acoustic guitar and electric guitar, ukulele, drums are parodies/interpretations of the original songs. You may use it for private study, scholarship, research or language learning purposes only