Home » B » Born Ruffians »

Born Ruffians - Retard Canard Bass

Artists:  A B C D E F G H I J K L M N O P Q R S T U V W X Y Z # 

Retard Canard Bass

(ver. 1) Click to play this song!
Born Ruffians


Tuning:EADG

My favourite song off the new album. The rhythms I wrote are pretty general, following 
drums while listening to the song is a good idea to learn the rhythms.


[0:02 - 0:05]

G|--------------------------------|
D|--------------------------------|
A|-3--3------------3--3-----------|
E|------3---3-3-3--------3--3-----|

[0:15 - 0:31]

G|----------------------------------|
D|-777-7----777-7----777------------|
A|----------------------5---555-5---|
E|----------------------------------|

G|-------------------------------------|
D|-777-7----777-7----777---------------|
A|----------------------555-555-555-5--|
E|-------------------------------------|

[0:32 - 1:00]

G|--------------------------------|
D|--------------------------------|
A|-3--3------------3--3-----------|
E|------3---3-3-3--------3--3-----|

G|--------------------------------------------|
D|-777-7\---777-7\----777-7\------------------|
A|-----------------------------555-555-555-5\-|
E|--------------------------------------------|

G|-------------------------------------------------|
D|-77-7\---77-7\------------777-7\-----------------| x2
A|-----------------333-555----------555-555-555-5\-|
E|-------------------------------------------------|

[1:01 - 1:33]

G|-----------------------------|
D|------2-2-3-3-2-2---223322---| x8
A|--3-3-------------33---------|
E|-----------------------------|

G|------2-2-3-3-2-2---223322---|
D|--3-3-------------33---------| x2
A|-----------------------------|
E|-----------------------------|

G|-----------------------------|
D|------2-2-3-3-2-2---223322---| x2
A|--3-3-------------33---------|
E|-----------------------------|

G|------------|
D|------------|
A|------------|
E|--3-3--3-3--|

[1:35 - 1:55]

G|--------------------------------|
D|--------------------------------|
A|-3--3------------3--3-----------|
E|------3---3-3-3--------3--3-----|

G|-------------------------------------------------|
D|-77-7\---77-7\------------777-7\-----------------| x2
A|-----------------333-555----------555-555-555-5\-|
E|-------------------------------------------------|

No bass from [1:56-2:01]

[2:02 - 2:07]

G|--5-7-7/9---7-5-7-7/9---5-7-7\------|
D|------------------------------------|
A|------------------------------------|
E|------------------------------------|

[2:07 - 2:38]

G|-----------------------------|
D|------2-2-3-3-2-2---223322---| x8
A|--3-3-------------33---------|
E|-----------------------------|

G|------2-2-3-3-2-2---223322---|
D|--3-3-------------33---------| x2
A|-----------------------------|
E|-----------------------------|

G|-----------------------------|
D|------2-2-3-3-2-2---223322---| x2
A|--3-3-------------33---------|
E|-----------------------------|

G|------------|
D|------------|
A|------------|
E|--3-3--3-3--|

[2:39 - 3:07]

G|--------------------------------|
D|--------------------------------| x2
A|-3--3------------3--3-----------|
E|------3---3-3-3--------3--3-----|

G|------------------------|
D|------------------------|
A|-3---3/8---8\7---7\-----|
E|--------------------3---|

G|------------------------|
D|------------------------| x2
A|-3---3------0---0---2---|
E|-------1--1-------3-----|

G|------------------------------|
D|------------------------------|
A|-3---3------------------------|
E|-------1--1-3-3-3-3-3-3-3-3-3-|

[3:08 - 4:23]

G|-----------------------------|
D|------2-2-3-3-2-2---223322---| x12
A|--3-3-------------33---------|
E|-----------------------------|

G|-----------------------------|
D|------2-2-3-3-2-2------------| x16
A|--3-3-------------33333333---|
E|-----------------------------|

G|-------------------------|
D|-------------------------|
A|--3--2--3--2--3-2-3-2----|
E|-------------------------|


| /  slide up
| \  slide down
| h  hammer-on
| p  pull-off
| ~  vibrato
| +  harmonic
| x  Mute note
            
Submit corrections

↑ Back to top | Tablatures and chords for acoustic guitar and electric guitar, ukulele, drums are parodies/interpretations of the original songs. You may use it for private study, scholarship, research or language learning purposes only