Home » B » Born Ruffians »

Born Ruffians - Little Garcon Bass

Artists:  A B C D E F G H I J K L M N O P Q R S T U V W X Y Z # 

Little Garcon Bass

(ver. 2) Click to play this song!
Born Ruffians
-------------------------------------------------------------------------------
			     LITTLE GARCON - Born Ruffians
-------------------------------------------------------------------------------


Tuning:EADG

First Part [Repeat from 0:21-1:44]

G|------------------------------------------------------------------------------|
D|-------4----------------------------------------------------------------------|
A|--5---------2-----5----4----4-2-0-2-5-----------------------------------------|
E|----------------5-------------------------------------------------------------|

Second Part [Repeat from 2:04-3:55]

G|------------------------------------------------------------------------------|
D|------------------------------------------------------------------------------|
A|--0---2---------0--2-4-4-4-0---2--2--2-2---4--4--4-4---2--2--2-2---4-4--------|
E|--------4---0----------------------------------------------------------0------|

This is a really basic interpretation of the parts. 
Listen to the song for the correct timing, and you'll get it. 
Once you've got it, play around with it a bit, and you're set!


| /  slide up
| \  slide down
| h  hammer-on
| p  pull-off
| ~  vibrato
| +  harmonic
| x  Mute note
===============================================================================
            
Submit corrections

↑ Back to top | Tablatures and chords for acoustic guitar and electric guitar, ukulele, drums are parodies/interpretations of the original songs. You may use it for private study, scholarship, research or language learning purposes only