Home » B » Born Ruffians »

Born Ruffians - Hedonistic Me Bass

Artists:  A B C D E F G H I J K L M N O P Q R S T U V W X Y Z # 

Hedonistic Me Bass

(ver. 1) Click to play this song!
Born Ruffians


Verse
play 4 times
G|------------------------------------|
D|------------------------------------|
A|------------------------------------|
E|-6-6-6---6-6-6---6-6-6---6-6-6------|

Chorus
G|------------------------------------|
D|------------------------------------|
A|--6~-6~-6~-6~-----------------------|
E|--------------6~-6~-8~-8~-----------|

After the first verse he starts to throw in a little variation.
Verse 2
G|---------5----------6--|
D|-------67-7-------67-7-|
A|-----------------------|
E|-6-6-6------6-6-6------|
            
Submit corrections

↑ Back to top | Tablatures and chords for acoustic guitar and electric guitar, ukulele, drums are parodies/interpretations of the original songs. You may use it for private study, scholarship, research or language learning purposes only