Home » B » Born Ruffians »

Born Ruffians - Coldness Hot Bass

Artists:  A B C D E F G H I J K L M N O P Q R S T U V W X Y Z # 

Coldness Hot Bass

(ver. 2) Click to play this song!
Born Ruffians
Born Ruffians-Coldness Hot 

EADG

Main Riff
|---------------------------------------------|
|---------------------------------------------|
|---8888--------------------------------------|
|-6-------9h10-9h10---------------------------|

or you can do this 
|---------------------------------------------|
|---3333--------------------------------------|
|-1------3h4-3h4------------------------------|
|---------------------------------------------|


the other part
|-------------------------------------------------|
|---------------8-8-------------------------------|
|----8-888----------------------------------------|
|--66------6-6------------------------------------|

then
|---------------------------------------------------|
|---------------------------------------------------|
|----8-888------4-4---------------------------------|
|-66-------6-6--------------------------------------|

the slow part
|-------------------------------------------------|
|-------8---------8-------------------------------|
|-------8---------8-------------------------------|
|-6--6-----66--6----------------------------------|

thats it, im not 100% sure its right but its the best i can figure it out
            
Submit corrections

↑ Back to top | Tablatures and chords for acoustic guitar and electric guitar, ukulele, drums are parodies/interpretations of the original songs. You may use it for private study, scholarship, research or language learning purposes only