Home » B » Born Of Osiris »

Born Of Osiris - Open Arms To Damnation Tabs

Artists:  A B C D E F G H I J K L M N O P Q R S T U V W X Y Z # 

Open Arms To Damnation Tabs

(ver. 2) Click to play this song!
Born Of Osiris
(Intro)
Not sure if this is exactly right but its close (Trying to figure the rest out so give
a little bit) let me know what you think or if you have any corrections let me

s-slide
h-hammer on
pm-palm mute

D[----------------------------------------------------------------------]
A[----------------------------------------------------------------------]
F[--------------------------------------------------------------6h9-----]
C[-----------------------------------------------------------5h8---5h8--]
G[--------------------------------------------------------4h7-----------]
C[-0-8s12-11-8-7-88-7-88-7-555-4-1--0-8s12-11-8-7-88-7-5h8--------------]
                 pm   pm   [ pm ]                 pm

D[----------------------------------------------------------------------]
A[----------------------------------------------------------------------]
F[----------------------------------------------------------------------]
C[-----------------------------------3-2--------------------------------]
G[-----------------------------------5-4--------------------------------]
C[-0-8s12-11-8-7-88-7-88-7-555-4-1--0----8-7-88-7-55-4------------------]
                 pm   pm   [ pm ]            pm   pm
            
Submit corrections

↑ Back to top | Tablatures and chords for acoustic guitar and electric guitar, ukulele, drums are parodies/interpretations of the original songs. You may use it for private study, scholarship, research or language learning purposes only