» » »

Boris Gardiner - Flood Part Iii Tabs

Artists:  A B C D E F G H I J K L M N O P Q R S T U V W X Y Z # 

Flood Part Iii Tabs

(ver. 1) Click to play this song!
Boris Gardiner
 Rating:
3/5 (20 votes)

 Flood Part Iii  lessons Tabs too difficult? Try these video lessons and learn fast
 
                Tuning:1/2 step down (D#G#C#F#A#D#)

Intro/Verse (Repeat many times)
D#|--------------------------|
A#|---------7----------------|
F#|-----6-----6------4--4----|
C#|---7---7--------6---6--6--|
G#|-5------------4-----------|
D#|--------------------------|

Verse part 2 x2
D#|-------------------------------------------------|
A#|---------0-----------0-----------0-----------0---|
F#|-----2-----2-----2-----2-----2-----2-----2-----2-|
C#|---2---2-------2---2-------2---2-------2---2-----|
G#|-0-----------4-----------2-----------2-----------|
D#|-------------------------------------------------|

Fill x15
D#|--------|
A#|--------|
F#|--------|
C#|-10~-11~|
G#|-10~-11~|
D#|--8~--9~|

End verse 2
D#|------------------------------------------------------------------------------------|
A#|----------------------0--------------------------0------------0------------0----0~--|
F#|-----4---4--------6------------4---4--------6-------------7-------------7-------4~--|
C#|---6---6---6----8---8---8----6---6---6----8----8---8----9---9---9----9---9---9--6~--|
G#|-4------------6------------4------------6-------------7------------8------------4~--|
D#|------------------------------------------------------------------------------------|

Verse 3 Riff                                                 End
D#|------------------------------------------------|-----------------|
A#|------------------------------------------------|-----------------|
F#|-6-6-6-6--7-7-7--9-9-9--2-2-2-2-2-2-2-2-2-2-2-2-|-9-8-9--2-2-2~~~-|
C#|-6-6-6-6--7-7-7--9-9-9--2-2-2-2-2-2-2-2-2-2-2-2-|--------2-2-2~~~-|
G#|-4-4-4-4--5-5-5--7-7-7--0-0-0-0-0-0-0-0-0-0-0-0-|--------0-0-0~~~-|
D#|-4-4-4-4--5-5-5--7-7-7--0-0-0-0-0-0-0-0-0-0-0-0-|--------0-0-0~~~-|
                                                            ^^^^^

Outro riff

D#|-------------|
A#|-------------|
F#|-------------|
C#|-6-7-4-5-2~~~|
G#|-6-7-4-5-2~~~|
D#|-4-5-2-3-0~~~|


************************************
Might as well add this

FLOOD I (use delay and loop pedals)

D#|---------------------|
A#|---------------------|
F#|------------6-4------|
C#|--0-0-5h7-7-----5~-7-|
G#|---------------------|
D#|---------------------|
            
Submit corrections


        Flood Part Iii  lessons Hard to play? Try these video lessons and learn fast Flood Part Iii  lessons
        
↑ Back to top | Tablatures and chords for acoustic guitar and electric guitar, ukulele, drums are parodies/interpretations of the original songs. You may use it for private study, scholarship, research or language learning purposes only