» » »

Boris Gardiner - Flood 3 Tabs

Artists:  A B C D E F G H I J K L M N O P Q R S T U V W X Y Z # 

Flood 3 Tabs

(ver. 1) Click to play this song!
Boris Gardiner
 Rating:
4.1/5 (23 votes)

 Flood 3  lessons Tabs too difficult? Try these video lessons and learn fast
 
                          repeat  Change with a beautiful drone, keep it ringing 
e|-----2---------|------------------------------------------------------------|
B|------------0--|-----0------0------0-----0----------------------------------|
G|--2-2-2---4----|---2--2---2--2---2--2--2--2---------------------------------|
D|---4-----6-6-6-|--2-2----0-0----4-4---4-4-----------------------------------|
A|-5------4------|-0------2------2-----2--------------------------------------|
E|---------------|------------------------------------------------------------|

These two little riffs/chords progressions come alternately two times. 
Then repeat the first riff again (now with the bass)

First part outro (drone again):
                                      slow down here, first part is over
e|---------------------------------------------------------------------------|
B|-----0------0------0------0------0------0----------------------------------|
G|---4------6------4------6------7------7------------------------------------|
D|--6-6-6--8-8-8--6-6-6--8-8-8--9-9-9--9-9-9--6------------------------------|
A|-4------6------4------6------7------8-------4------------------------------|
E|---------------------------------------------------------------------------|
                                              T   ... on this tonic switch on the fuzz and blast it tutti


SECOND PART
tempo change (or not, figure it out)
Remember to play it loosely, the sound is all waves, sail on them
    
             this tonic can be a powerchord, a major third or a whole major chord,
             play around with it (your bassist too) 
             ^
e|-----------|-------------------------|--last time before the vocals enter:--------------|
B|-----------|-------------------------|--(7 fret on E instead of 9 fret on D is for the bass,the rest
G|-----------|-------------------------|--of the time it plays single notes under the guitar)
D|-8--9--11--|----things like:---------|---8-------9---9-9~-------------9-----------------|
A|-6--7--9---9--------------67779976---|---6-------7----9---------------6-----------------|
E|-----------7--------------777777777--|----------------(7)-------------7-----------------|
   FORTE FORTISSIMO FUZZISSIMO                                          tutti (blast)

the main riff repeats with the vocals above, finish this part simply with the tonic.

OUTRO
Repeat this thing and tell your drummer to learn his part.
The drums keep playing a rhythm in a different meter, they disunite from the guitars,
then eventually join them.
                                    
e|-------------------r|-when the drums come back-|
B|-------------------e|-to the meter:------------|
G|-------------------p|----- --------------------| After this meeting, bring major scales solos over the riff
D|-896-7-4-----------e|-896- --4-----------------| if you wish. Improvise, the band is  absolutely free on 
A|-674-5-2-----------a|-674- --2-----------------| the tonic (dumm),just keep the breaks (du-du-duu-duu-dumm).
E|-------------------t|--------------------------|
         T                     T            
Submit corrections


        Flood 3  lessons Hard to play? Try these video lessons and learn fast Flood 3  lessons
        
↑ Back to top | Tablatures and chords for acoustic guitar and electric guitar, ukulele, drums are parodies/interpretations of the original songs. You may use it for private study, scholarship, research or language learning purposes only