Home » B » Bonnie Tyler »

Bonnie Tyler - Total Eclipse Of The Heart Bass

Artists:  A B C D E F G H I J K L M N O P Q R S T U V W X Y Z # 

Total Eclipse Of The Heart Bass

(ver. 1) Click to play this song!
Bonnie Tyler
[Verse]
G|-----------------|-----------------|-----------------|-----------------|
D|-----------------|-----------------|-----------------|-----------------|
A|-----------------|-----------------|-----------------|-----------------|
E|-----------------|-----------------|-----------------|-----------------|

G|-----------------|-----------------|-----------------|---------------16\|
D|-----------------|-----------------|-----------------|------------------|
A|-----------------|-----------------|-----------------|------------------|
E|-----------------|-----------------|-----------------|------------------|

[Pre Chorus]
G|-9-------9/14-------|----16\9------------9/|-14---------------|
D|--------------------|----------------------|------------------|
A|--------------------|----------------------|--------------6---|
E|--------------------|----------------------|------------------|

[Chorus]
G|-----------------|-----------------|-----------------|-----------------|
D|-6-----6-3-----3-|---------------5-|-6-----6-3-----3-|---------------5-|
A|-----------------|-4-----4-6-------|-----------------|-4-----4-6-------|
E|-----------------|-----------------|-----------------|-----------------|

G|-----------------|-----------------|-----------------|-----------------|
D|-6-----6-3-----3-|-----------------|-----------------|-5-5-5-5-5-5-5-5-|
A|-----------------|-4-----4-6-------|-8-8-8-8-8-8-8-8-|-----------------|
E|-----------------|-----------------|-----------------|-----------------|

G|-----------------|-----------------|-----------------|-----------------|
D|-----------------|-----------------|-----------------|-6-6-6-6-6-6-6-6-|
A|-8-8-8-8-8-8-8---|-----------------|-----------------|-----------------|
E|---------------8-|-6-6-6-6-6-6-6-6-|-6-6-6-6-6-6-6-6-|-----------------|

G|-----------------|-----------------|-----------------|-----------------|
D|-5-5-5-5-5-5-5-5-|-----------------|-----------------|-----------------|
A|-----------------|-8-8-8-8-8-8-8---|-----------------|-----------------|
E|-----------------|---------------8-|-6-6-6-6-6-6-6-6-|-6-6-6-6-6-6-6-6-|

G|-----------------|-----------------|-----------------|-------------------|
D|-----------------|-----------------|-----------------|-------------------|
A|-----------------|-----------------|-----------------|-------------------|
E|-8-8-8-8-8---8-8-|-6-6-6-6-8-8-8-8-|-9-9-9-9-9-9-9-9-|-11-------11-------|

G|-----------------|-----------------|-----------------|-----------------|
D|-----------------|-----------------|-----------------|-----------------|
A|-----------------|-----------------|-----------------|-----------------|
E|-----------------|-----------------|-----------------|-----------------|

G|-----------------|-----------------|-----------------|-------------20-\-|
D|-----------------|-----------------|-----------------|------------------|
A|-----------------|-----------------|-----------------|------------------|
E|-----------------|-----------------|-----------------|------------------|

[Bridge]
G|-13---------------|-10---------------|----------------10-|-8-------12-------|
D|------------------|------------------|-11----------------|------------------|
A|------------------|------------------|-------------------|------------------|
E|------------------|------------------|-------------------|------------------|

G|-13---------------|-10---------------|------------------|-------------------|
D|------------------|------------------|-10---------------|-11-------------10-|
A|------------------|------------------|------------------|-------------------|
E|------------------|------------------|------------------|-------------------|

G|-----------------|-----------------|-----------------|-----------------|
D|-8---------------|-----------------|-6---------------|-----------------|
A|-----------------|-6---------------|-----------------|-8---------------|
E|-----------------|-----------------|-----------------|-----------------|

G|-6---------------|-8-----/-12-------|-13---------------|-----------------|
D|-----------------|------------------|------------------|-----------------|
A|-----------------|------------------|------------------|-----------------|
E|-----------------|------------------|------------------|-----------------|

G|-----------------|-----------------|-----------------|-----------------|
D|-----------------|-----------------|-----------------|-6-----------6---|
A|-----------------|-----------------|---------------6-|---------------6-|
E|-6---------------|-------------6-/-|-4---------------|-----------------|

G|-----------------|-----------------|---------------8-|-----------------|
D|-----------------|-----------------|-----------------|-6-----------6---|
A|-----------------|-----------------|-----------------|---------------6-|
E|-6-------6-------|-------------6-/-|-4---------------|-----------------|

G|-----------------|-----------------|-----------------|-----------------|
D|-----------------|-----------------|-----------------|-------------1-4-|
A|-4---------------|-4-------------4-|-2---------------|-2---------------|
E|---------------4-|-----------------|---------------2-|-----------------|

G|-----------------|-----------------|-4---------------|-4-------4-------|
D|-----------------|-----------------|---------------4-|-------------4---|
A|-4---------------|-4---------------|-----------------|-----------------|
E|---------------4-|-----------------|-----------------|-----------------|

[Pre Chorus]
G|-----------------|-----------------|-------------------|-----------------|
D|-----------------|-----------------|-7-----------------|-----------------|
A|-7---------------|---------------7-|---------------4h5-|-7---------------|
E|---------------7-|-5---------------|-------------------|---------------7-|

G|-----------------|-----------------|-----------------|
D|-----------------|-7-------------7-|-----------------|
A|---------------7-|-------------7---|-------6---------|
E|-5---------------|-----------------|-----------------|

[Chorus]
G|-----------------|-----------------|-----------------|-----------------|
D|-6-----6-3-----3-|---------------5-|-6-----6-3-----3-|---------------5-|
A|-----------------|-4-----4-6-------|-----------------|-4-----4-6-------|
E|-----------------|-----------------|-----------------|-----------------|

G|-----------------|-----------------|-----------------|-----------------|
D|-6-----6-3-----3-|-----------------|-----------------|-5-5-5-5-5-5-5-5-|
A|-----------------|-4-----4-6-------|-8-8-8-8-8-8-8-8-|-----------------|
E|-----------------|-----------------|-----------------|-----------------|

G|-----------------|-----------------|-----------------|-----------------|
D|-----------------|-----------------|-----------------|-6-6-6-6-6-6-6-6-|
A|-8-8-8-8-8-8-8---|-----------------|-----------------|-----------------|
E|---------------8-|-6-6-6-6-6-6-6-6-|-6-6-6-6-6-6-6-6-|-----------------|

G|-----------------|-----------------|-----------------|-----------------|
D|-5-5-5-5-5-5-5-5-|-----------------|-----------------|-----------------|
A|-----------------|-8-8-8-8-8-8-8---|-----------------|-----------------|
E|-----------------|---------------8-|-6-6-6-6-6-6-6-6-|-6-6-6-6-6-6-6-6-|

G|-----------------|-----------------|-----------------|-----------------|
D|-----------------|-----------------|-----------------|-----------------|
A|-----------------|-----------------|-----------------|-----------------|
E|-6-6-6-6-6-6-6-6-|-8-8-8-8-8---8---|-6-6-6-6-8-8-8-8-|-9-9-9-9-9-9---9-|

G|-------------------|-----------------|-----------------|-----------------|
D|-------------------|-----------------|-----------------|-----------------|
A|-------------------|-----------------|-----------------|-----------------|
E|-11-------11-------|-----------------|-----------------|-----------------|

G|-----------------|-----------------|-------------------|-----------------|
D|-----------------|-----------------|---------11---10---|-8---------------|
A|-----------------|-----------------|-------------------|-----------------|
E|-----------------|-----------------|-------------------|-----------------|

[Outro]
G|-8---------------|-13-----------13-\-|-10---------------|-------------------|
D|-----------------|-------------------|------------------|-11----------------|
A|-----------------|-------------------|------------------|-------------------|
E|-----------------|-------------------|------------------|-------------------|

G|-8---------------|-13-----------13-\-|-10----------------|-------------------|
D|-----------------|-------------------|--------------10---|-11----------------|
A|-----------------|-------------------|-------------------|-------------------|
E|-----------------|-------------------|-------------------|-------------------|

G|-8-----/-12-------|-13---------------|
D|------------------|------------------|
A|------------------|------------------|
E|------------------|------------------|            
Submit corrections

↑ Back to top | Tablatures and chords for acoustic guitar and electric guitar, ukulele, drums are parodies/interpretations of the original songs. You may use it for private study, scholarship, research or language learning purposes only