Home » B » Bonnie Raitt »

Bonnie Raitt - Dimming Of The Day Tabs

Artists:  A B C D E F G H I J K L M N O P Q R S T U V W X Y Z # 

Dimming Of The Day Tabs

(ver. 1) Click to play this song!
Bonnie Raitt
(Live)
LIVE VERSION CAPO 1
There is actually two guitars playing in the song.  This is tabbed for one guitar.


INTRO:  

           
|-----------------|--------------------------|-------------------------------|
|-----------0--1--|--------3--------------3--|--------3------------------0---|
|-----0--2--------|-----2-----2--------2-----|-----2-----4h2p0-----0--2------|
|--0--------------|--0--------------0--------|--0---------------4------------|
|-----------------|--------------0-----------|-------------------------------|
|-----------------|--------------------------|-------------------------------|


|--------------------|-----------------------|---------------3--2--0---|---------------||
|-----3--1-----1-----|--0-------------0--1---|--------3----------------|--3-----3------||
|--0--0-----------0--|--0------0--2----------|-----2-----2-------------|-----2-----2---||
|-----------2--2-----|--0---0----------------|--0----------------------|--0------------||
|--------------------|-----------------------|-------------------------|---------------||
|--3--------3--------|--3--------------------|-------------------------|---------------||
            
Submit corrections

↑ Back to top | Tablatures and chords for acoustic guitar and electric guitar, ukulele, drums are parodies/interpretations of the original songs. You may use it for private study, scholarship, research or language learning purposes only