» » »

Bon Jovi - Never Say Goodbye Tabs

Artists:  A B C D E F G H I J K L M N O P Q R S T U V W X Y Z # 

Never Say Goodbye Tabs

(ver. 3) Click to play this song!
Bon Jovi
 Rating:
4/5 (4 votes)


 Never Say Goodbye lessons Tabs too difficult? Try these video lessons and learn fast
 
                
b = bend
14(b) x2 = 1 downstroke but bend up the string two times
                  (just listen to the song and you get it)
¤ = Flasholetti (an overture)


e|-----------------------------------------------------------------------|
B|-------------------3---2------------------5(b)7--5---14(b)15-x2--------|
G|-----------2---4-----------4(b¤)6---2-----------------------------14---|
D|-------2---------------------------------------------------------------|
A|---4-------------------------------------------------------------------|
E|-----------------------------------------------------------------------|
                                                                Tri~    Tri~       Tri~
e|--------------------------------------------------------5-7-5---7--------|
B|-----------------------------------------------5-7-5---------------------|
G|----------------2-----------------4----6-7-6-----------------------------|
D|-------3---5-------------5---7-------------------------------------------|
A|---3-----------------5---------------------------------------------------|
E|-------------------------------------------------------------------------|
                                                                                              
e|---10--9--7-----------12(b)14-12---21(b)23-x2--17-------------------------|
B|---------------10---------------------------------------------------------|
G|--------------------------------------------------------------------------|
D|--------------------------------------------------------------------------|
A|--------------------------------------------------------------------------|
E|--------------------------------------------------------------------------|
          Tri~           Tri~             Tri~             Tri~
e|--13-15-13---------------15-17-15------------------------------------------|
B|--------------13-15-13----------------15-17-15----17(b)19~-----------------|
G|---------------------------------------------------------------------------|
D|---------------------------------------------------------------------------|
A|---------------------------------------------------------------------------|
E|---------------------------------------------------------------------------|
            
Submit corrections



        Never Say Goodbye lessons Hard to play? Try these video lessons and learn fast Never Say Goodbye lessons
        
↑ Back to top | Tablatures and chords for acoustic guitar and electric guitar, ukulele, drums are parodies/interpretations of the original songs. You may use it for private study, scholarship, research or language learning purposes only