» » »

Bon Jovi - Last Man Standing Tabs

Artists:  A B C D E F G H I J K L M N O P Q R S T U V W X Y Z # 

Last Man Standing Tabs

(ver. 1) Click to play this song!
Bon Jovi
 Rating:
4/5 (4 votes)


 Last Man Standing lessons Tabs too difficult? Try these video lessons and learn fast
 
                This is one of my favorite songs by Bon Jovi. I couldn't find any good tabs so i decided 
tab it out myself. Although I'm still working on the solo so i won't have that tabbed 
once i get it I'll add it.

Hope you like it!!! : )


----------------------------------------------------------------------------
----------------------------------------------------------------------------

Standard Tuning (E,A,D,G,B,e)

Intro
|---------------------------------------------------------|
|-12-12-12-12---10---13---12---10---8-----7-----8-----5~--|
|-12-12-12-12---11---12---12---11---9-----7-----9-----5~--|
|-14-14-14-14-0-12-0-14-0-14-0-12-0-9-0-0-7-0-0-9-0-0-5~--|
|---------------------------------------------------------|
|---------------------------------------------------------|
|
|
|---------------------------------------------------------|
|-12-12-12-12---10---13---12---10---8-----7-----8-----8~--|
|-12-12-12-12---11---12---12---11---9-----7-----9-----9~--|
|-14-14-14-14-0-12-0-14-0-14-0-12-0-9-0-0-7-0-0-9-0-0-9~--|
|---------------------------------------------------------|
|---------------------------------------------------------|

Verse (strum)
|--0--|--3--|--0--|-----|
|--0--|--3--|--1--|--1--|
|--1--|--0--|--2--|--0--|
|--2--|--0--|--2--|--2--|
|--2--|--2--|--0--|--3--|
|--0--|--3--|-----|-----|

Chorus (with distortion)
|----------------------------3--2-2-2--3--2-2-2----------------------------|
|----------------------------3--3-3-3--3--3-3-3----------------------------|
|----------------------------2--2-2-2--2--2-2-2----------------------------|
|-5--5--5-5-5-5--5-5--5-5-5--0--0-0-0--0--0-0-0--7--7--7-7-7-7--7-7--7-7-7-|
|-5--5--5-5-5-5--5-5--5-5-5----------------------7--7--7-7-7-7--7-7--7-7-7-|
|-3--3--3-3-3-3--3-3--3-3-3----------------------5--5--5-5-5-5--5-5--5-5-5-|
|
|
|----------------------------|
|----------------------------|
|----------------------------|
|-2--2--2-2-2-2--2-2--2-2-2--|
|-2--2--2-2-2-2--2-2--2-2-2--|
|-0--0--0-0-0-0--0-0--0-0-0--|
|
|
|----------------------------3--2-2-2--3--2-2-2----------------------------|
|----------------------------3--3-3-3--3--3-3-3----------------------------|
|----------------------------2--2-2-2--2--2-2-2--5--5--5-5-5-5--5-5--5-5-5-|
|-5--5--5-5-5-5--5-5--5-5-5--0--0-0-0--0--0-0-0--5--5--5-5-5-5--5-5--5-5-5-|
|-5--5--5-5-5-5--5-5--5-5-5----------------------3--3--3-3-3-3--3-3--3-3-3-|
|-3--3--3-3-3-3--3-3--3-3-3------------------------------------------------|
|
|
|----------------------------|
|----------------------------|
|-7--7--7-7-7-7--7-7--7-7-7--|
|-7--7--7-7-7-7--7-7--7-7-7--|
|-5--5--5-5-5-5--5-5--5-5-5--|
|----------------------------|

Pre-solo (with wah and distortion)
|------------------------------------------------------|
|------------------------------------------------------|
|-9-9-9-9-x-9-x-9-x-9-x-9-7-7-7s9-9-9-x-9-x-9-x-9-x-9--|
|-x-x-x-x-x-x-x-x-x-x-x-x-x-x-x-x-x-x-x-x-x-x-x-x-x-x--|
|-7-7-7-7-x-7-x-7-x-7-x-7-5-5-5s7-7-7-x-7-x-7-x-7-x-7--|
|------------------------------------------------------|

Solo (with distortion)
|-------------------------------------------------------------------|
|-15b17-17-17-15b17-17-17-15b17-17-17-15b17-17-17-15b17-17-17-------|
|-------------------------------------------------------------14b16-|
|-------------------------------------------------------------------|
|-------------------------------------------------------------------|
|-------------------------------------------------------------------|

-------------------------------------------------------------------------|
-15b17-15b17-12----------------------------------------------------------|
----------------14p12-14p12~-9--9-7-7-4-4-4-2--0-2-0-3b5-3p0----0--------|
-------------------------------------------------------------2-2-2p0-----|
---------------------------------------------------------------------2p0-|
-------------------------------------------------------------------------|

---------|
---------|
---------|
---------|
--0------|
-3-3p0~--|

Thats all i have on the solo but i'm working on it!!

Post-solo
|-----------------|
|-----------------|
|-----------------|
|-2~--5~--7~-10~--|
|-2~--5~--7~-10~--|
|-0~--3~--5~--8~--|

s - slide
h - hammer on
p - pull off
b - bend
~ - hold

Order:

Intro 2x

verse 1x

Intro 1x

verse 1x

Chorus 1x

Intro 1x

verse 1x

Chorus 1x

Pre-Solo 1x

Solo 1x

Post solo 1x

Chorus 2x

Intro 2x
            
Submit corrections



        Last Man Standing lessons Hard to play? Try these video lessons and learn fast Last Man Standing lessons
        
↑ Back to top | Tablatures and chords for acoustic guitar and electric guitar, ukulele, drums are parodies/interpretations of the original songs. You may use it for private study, scholarship, research or language learning purposes only