Home » B » Bon Iver »

Bon Iver - Creature Fear Tabs

Artists:  A B C D E F G H I J K L M N O P Q R S T U V W X Y Z # 

Creature Fear Tabs

(ver. 2) Click to play this song!
Bon Iver
This version if from the Black Cab Session. I do not claim that this tab 
is 100% accurate; same goes for the lyrics (hard to understand at times). 
When he plays Am and the C [with the G"/G"] bass chords, 
he's hitting the 5th string, strums, then hits the 6th string
and strums again.I've tabbed out the little riffs he does during
the song and you can find those at the bottom of the page. 
Please send me any/all correction, tab or lyric, it doesn't matter. 
Have fun, and happy playing!

Intro: C/G Am G (w/Riff 1) F

      C/G
I was full by your count
      Am
I was lost but your fool
      G w/Riff2
Was a long visit wrong?
                      F
Say you are the only

G        Am       F maj7
So many foreign worlds
So relatively f**ked
E        Am
So ready for us
G        Am
So ready for us
  F maj7
A creature fear

C/G
I was teased by your blouse
Am
Spit out by your mouth
      G w/Riff 3
I was loud by your lowered
               F
Seminary soul

C/G              Am w/Riff 4
Tear on trail on
Take all on the wound
G w/Riff 5
Soft bloody nose
                   F
Sign another floor

G       Am        F maj7
So many foreign worlds
So relitivaly f**ked
E       Am
So many forests
G       Am
So many torahs
   F maj7
A creature fear

G         Am  F maj7
So ready for us
So relatively f**ked
E         Am
So ready for us
G         Am
So many forests
   F maj7
A creature fear


Riff 1
e|------------------------------------------------------1--------------------|
B|-----------0-----0-0----0h1-0--------------------1----1--------------------|
G|--0--------------0-0----------2-0----------------2-2-(2)-2-----------------|
D|--0--0-2-3------3-3-3--------------0h2-2-p0----3---3-----3-----------------|
A|--2-------------2-2-2----------------------3---3---3-----3-----------------|
E|--3-------------3-3-3-3------------------------1---------------------------|

Riff 2

    Was a long   visit  wrong?   Say  you  are  the  only
e|---------------------------------------------------------------------------|
B|------------------------0------0h1--0--------------------------------------|
G|----------0------------------------------2-----0---------------------------|
D|----------0----0-2----3----------------------------2-2----0----------------|
A|----------2------------------------------------------------h3--------------|
E|----------3-----------------(3)--------------------------------------------|

Riff 3

    I was loud  by  your  lowered  seminary  soul
e|---------------------------------------------------------------------------|
B|--------------------------0-------0h1-0------------------------------------|
G|-----------0----------------------------2-0--------------------------------|
D|-----------0--0---2-----3---------------------2-2--0-----------------------|
A|-----------2-----------------------------------------3---------------------|
E|-----------3---------------------------------------------------------------|

Riff 4

    Tail on     
e|---------------------------------------------------------------------------|
B|---------1p0----0--1p0-----------------------------------------------------|
G|---------2---2--2--2-------------------------------------------------------|
D|---------2------2--2-------------------------------------------------------|
A|---------------------------------------------------------------------------|
E|---------------------------------------------------------------------------|

Riff 5

    Soft  bloody  nose       sign  another  floor
e|---------------------------------------------------------------------------|
B|------------------0--------0h1---0-----------------------------------------|
G|---0------------------------------2-0--------------------------------------|
D|---0----0---2----3---3--------------------2-2-----2-0----------------------|
A|---2-----------------x--------------------------------3--------------------|
E|---3-----------------33333-------------------------------------------------|


************************************

| h   hammer-on
| p   pull-off

************************************
            
Submit corrections

↑ Back to top | Tablatures and chords for acoustic guitar and electric guitar, ukulele, drums are parodies/interpretations of the original songs. You may use it for private study, scholarship, research or language learning purposes only