Home » B » Bohemia Suburbana »

Bohemia Suburbana - Aire Tabs

Artists:  A B C D E F G H I J K L M N O P Q R S T U V W X Y Z # 

Aire Tabs

(ver. 1) Click to play this song!
Bohemia Suburbana
#This OLGA file is the author's own work and represents their interpretation  #
#research. Remember to view this file in Courier, or other monospaced font.   #


                                  Aire
                            Bohemia Suburbana


  intro/verse                                                       10x
||---3--3--3-----2--3--3--2-----0--0--3--3--0-----3--3--6--6--5--5---|-|
||---3--3--3-----3--3--3--3-----1--1--1--1--1-----4--4--4--4--4--4---|-|
||*--0--0--0-----2--2--2--2-----2--2--2--2--2-----3--3--3--3--3--3--*|-|
||*--0--0--0-----0--0--0--0-----2--2--2--2--2-----5--5--5--5--5--5--*|-|
||---2--2--2--------------------------------------3--3--3--3--3--3---|-|
||---3--3--3---------------------------------------------------------|-|


   bridge                                  6x
||---3--3--3--3-----1--1--1--1--0--0--0---||----------------------------------|
||---3--3--3--3-----3--3--3--3--1--1--1---||----------------------------------|
||*--0--0--0--0-----2--2--2--2--2--2--2--*||----------------------------------|
||*--0--0--0--0-----0--0--0--0--2--2--2--*||----------------------------------|
||---2--2--2--2--------------------------------||-----------------------------|
||---3--3--3--3--------------------------------||-----------------------------|


  chorus
||---0--0--0--3--3--3--0--0--0----||------------------------------------------|
||---1--1--1--3--3--3--1--1--1----||------------------------------------------|
||*--0--0--0--3--3--3--2--2--2--*||-------------------------------------------|
||*--2--2--2--5--5--5--2--2--2--*||-------------------------------------------|
||---3--3--3--5--5--5---------------||----------------------------------------|
||--------------3--3--3---------------||--------------------------------------|


Here are the lyrics

                        Aire
verse
Hoy no quiero platicar contigo
Solamente verte actuar conmigo
Sin masticar asi un fruto prohibido
Que esta muy podrido
Talvez podrias decirme tu
Como podria un ser humano vivir
En completa soledad, soledad.
Sabes quien podria decirme
Como podria yo existir
si ya no esta mi libertad

bridge
Buscando algo que me lleve
Si el agua cae es porque llueve
Quiero seguir buscando
Quiero seguir llorando
Y no sentirme mal.

chorus
Aire, me falta el aire;
Miedo, me sobra el miedo;
Para respirar
Para poder luchar.

Hey folks! post more Bohemia tabs!


I'm looking California... And feeling Minnesota...So now you know, who gets
mystified... Show me the power child...I'd like to say... that I'm down on
my knees today... It gives me the butterflies...Gives me away... Till I'm
up on my feet again... I'm feeling outshined.cc
Peter Meng
            
Submit corrections

↑ Back to top | Tablatures and chords for acoustic guitar and electric guitar, ukulele, drums are parodies/interpretations of the original songs. You may use it for private study, scholarship, research or language learning purposes only