» » »

Boehse Onkelz - Ich Bin In Dir Tabs

Artists:  A B C D E F G H I J K L M N O P Q R S T U V W X Y Z # 

Ich Bin In Dir Tabs

(ver. 3) Click to play this song!
Boehse Onkelz
 Rating:
4/5 (4 votes)

 Ich Bin In Dir lessons Tabs too difficult? Try these video lessons and learn fast
 
                (Live)
Band:		Böhse Onkelz
Album:		Heilige Lieder
Jahr:		1992
Mix:		Live Version - Vaya con Tioz 2005




Melody:			    4x
e|--------------------------------|
h|--------------------------------|
g|------11-----11-----11---11-11--|
D|--9-9----9-9----9-9----9--------|
A|--------------------------------|
E|--------------------------------|



Verse:							 2x
e|---------------------------------------------------------------------|
h|---------------------------------------------------------------------|
g|---------------------------------------------------------------------|
D|--2-2----5-5--4-4--2-2----5-5--4-4-----------------------------------|
A|--2-2----5-5--4-4--2-2----5-5--4-4--2-2-2-2-2-2-2-2-5-5-5-5-4-4-4-4--|
E|--0-0----3-3--2-2--0-0----3-3--2-2--0-0-0-0-0-0-0-0-3-3-3-3-2-2-2-2--|
                                      . . . . . . . . . . . . . . . .   pm
e|-------------------|
h|-------------------|
g|-------------------|
D|--2-2----5-5--4-4--|
A|--2-2----5-5--4-4--|
E|--0-0----3-3--2-2--|



Bridge:				  2x
e|---------------------------------------|
h|---------------------------------------|
g|--9~--9-9-9-/-7~--7-7-7-/-5-5--7-7--9~-|
D|--9~--9-9-9-/-7~--7-7-7-/-5-5--7-7--9~-|
A|--7~--7-7-7-/-5~--5-5-5-/-3-3--5-5--7~-|
E|---------------------------------------|



Chorus:
e|--------------------------------|
h|--------------------------------|
g|--5-5-4~----------5-5-4~--------|
D|--5-5-4~-5-5-4-2--5-5-4~-5-5-4--|
A|--3-3-2~-5-5-4-2--3-3-2~-5-5-4--|
E|---------3-3-2-0---------3-3-2--|
           . . . .         . . .   pm



Melody:			    4x
e|--------------------------------|
h|--------------------------------|
g|------11-----11-----11---11-11--|
D|--9-9----9-9----9-9----9--------|
A|--------------------------------|
E|--------------------------------|



Verse:							 2x
e|---------------------------------------------------------------------|
h|---------------------------------------------------------------------|
g|---------------------------------------------------------------------|
D|--2-2----5-5--4-4--2-2----5-5--4-4-----------------------------------|
A|--2-2----5-5--4-4--2-2----5-5--4-4--2-2-2-2-2-2-2-2-5-5-5-5-4-4-4-4--|
E|--0-0----3-3--2-2--0-0----3-3--2-2--0-0-0-0-0-0-0-0-3-3-3-3-2-2-2-2--|
                                      . . . . . . . . . . . . . . . .   pm
e|-------------------|
h|-------------------|
g|-------------------|
D|--2-2----5-5--4-4--|
A|--2-2----5-5--4-4--|
E|--0-0----3-3--2-2--|



Bridge:				 2x
e|---------------------------------------|
h|---------------------------------------|
g|--9~--9-9-9-/-7~--7-7-7-/-5-5--7-7--9~-|
D|--9~--9-9-9-/-7~--7-7-7-/-5-5--7-7--9~-|
A|--7~--7-7-7-/-5~--5-5-5-/-3-3--5-5--7~-|
E|---------------------------------------|



Chorus:
e|----------------------------------------------------------------|
h|----------------------------------------------------------------|
g|--5-5-4~----------5-5-4~----------------------------------------|
D|--5-5-4~-5-5-4-2--5-5-4~-5-5-4----------------------------------|
A|--3-3-2~-5-5-4-2--3-3-2~-5-5-4-----2-2-----2-2-----2-2-----2-2--|
E|---------3-3-2-0---------3-3-2-0-0-0-0-0-0-0-0-0-0-0-0-0-0-0-0--|
	  . . . .         . . . . .     . .     . .     . .       pm



Solo:
e|---------------------12~-----------------------------------------|
h|------------------------15-12------------------------------------|
g|--9--11---12-11-14------------14-12-14p12----12------------------|
D|--x--x----x--x--x-------------------------14----14-12h14~--------|
A|--7--9----10-9--12----------------------------------------h15\7--|
E|-----------------------------------------------------------------|

e|---------------------12~----------------------------|
h|------------------------15p12-15-12-----------------|
g|--9--11---12-11-14------------------14-12-12~14-14~-|
D|--x--x----x--x--x-----------------------------------|
A|--7--9----10-9--12----------------------------------|
E|----------------------------------------------------|

e|----------------------------10-10-12p10----10-12p10----10-----------------------|
h|--5-5-5\7-7-7-8-8-3-3-3\5~--------------12----------12----12p10----10-12p10-----|
g|----------------------------------------------------------------12----------12--|
D|--------------------------------------------------------------------------------|
A|--------------------------------------------------------------------------------|
E|--------------------------------------------------------------------------------|

-------------------------------|
10-----------------------------|
--12p9----9-12p9----9-9--7\9~--|
-------12--------12------------|
-------------------------------|
-------------------------------|

e|------------------------0~---0--------------------------------|
h|--5-5-5\7-7-7-8-8-3-3-3--------3-0----------------------------|
g|-----------------------------------2-0---0-2--2--2p0---0------|
D|---------------------------------------2~------------2---2-0~-|
A|--------------------------------------------------------------|
E|--------------------------------------------------------------|
                          ^-_ wah wah ______________________-^



Bridge:				   2x
e|---------------------------------------|
h|---------------------------------------|
g|--9~--9-9-9-/-7~--7-7-7-/-5-5--7-7--9~-|
D|--9~--9-9-9-/-7~--7-7-7-/-5-5--7-7--9~-|
A|--7~--7-7-7-/-5~--5-5-5-/-3-3--5-5--7~-|
E|---------------------------------------|



Chorus:
e|----------------------------------------------------------------|
h|----------------------------------------------------------------|
g|--5-5-4~----------5-5-4~----------------------------------------|
D|--5-5-4~-5-5-4-2--5-5-4~-5-5-4----------------------------------|
A|--3-3-2~-5-5-4-2--3-3-2~-5-5-4-----2-2-----2-2-----2-2-----2-2--|
E|---------3-3-2-0---------3-3-2-0-0-0-0-0-0-0-0-0-0-0-0-0-0-0-0--|
	  . . . .         . . . . .     . .     . .     . .       pm


Outro:	(clean)		        4x| (distortion)
e|---------------------------------|-------------------|
h|---------0-----------------------|-------------------|
g|-------0---0---------------------|-------------------|
D|-----2-------2-------0-------0---|-------------------|
A|---2-----------2---0---0---0---0-|------2-2-----2-2~-|
E|-0---------------3-------2-------|--0-0-0-0-0-0-0-0~-|
		                  |  . .     . .       pm
            
Submit corrections


        Ich Bin In Dir lessons Hard to play? Try these video lessons and learn fast Ich Bin In Dir lessons
        
↑ Back to top | Tablatures and chords for acoustic guitar and electric guitar, ukulele, drums are parodies/interpretations of the original songs. You may use it for private study, scholarship, research or language learning purposes only