» » »

Boehse Onkelz - Die Firma Tabs

Artists:  A B C D E F G H I J K L M N O P Q R S T U V W X Y Z # 

Die Firma Tabs

(ver. 2) Click to play this song!
Boehse Onkelz
 Rating:
4/5 (4 votes)

 Die Firma lessons Tabs too difficult? Try these video lessons and learn fast
 
                Band: Boehse Onkelz
Tuning: Standard

PM = Palm Muted
/  = Slide up

Intro
E|-----------|------------|-----------|-----------------|
H|-----------|------------|-----------|-----------------|
G|-----------|------------|-----------|-----------------|
D|-----------|-9--9-9-9-9-|-----------|-11--11-11-11-11-| 
A|-6-6-6-6-6-|-7--7-7-7-7-|-9-9-9-9-9-|--9---9--9--9--9-|
E|-4-4-4-4-4-|------------|-7-7-7-7-7-|-----------------|

Vers
E|-----------------|-----------------|-----------------|------------|
H|-----------------|-----------------|-----------------|------------|
G|-----------------|-----------------|-----------------|------------|
D|-----------------|-9-9-9-9-9-9-9-9-|-6-6-6-6-6-6-6-6-|-6-...------|
A|-6-6-6-6-6-6-6-6-|-7-7-7-7-7-7-7-7-|-4-4-4-4-4-4-4-4-|-4-...------|
E|-4-4-4-4-4-4-4-4-|-----------------|-----------------|------------|
PM . . . . . . . .   . . . . . . . .   . . . . . . . .   . ...

Interlude
E|--------------|
H|--------------|
G|--------------|
D|------9-9-6-6-|
A|-6-6--7-7-4-4-|
E|-4-4----------|

Chorus (rythm is a bit like in the Intro)
E|------------|------------|------------|------------|
H|------------|------------|------------|------------|
G|------------|------------|------------|------------|
D|------------|-9...-------|------------|-11...------|
A|-6...-------|-7...-------|-9...-------|--9...------|
E|-4...-------|------------|-7...-------|------------|

Post Chorus
E|------|-------|-------|----|
H|------|-------|-------|----|
G|------|-------|-------|----|
D|-9...-|-------|-11...-|----|
A|-7...-|-9-9-9-|--9...-|-6/-|
E|------|-7-7-7-|-------|-4/-|

Break
E|--------------------|--------------------------------|
H|--------------------|--------------------------------|
G|--------------------|--------------------------------|
D|--------9--9--------|--------9--9--------------------|
A|-4-6--6-7--7-9--9-4-|-4-6--6-7--7-9--4-4-4-4-4-4-4-4-|
E|-2-4--4------7--7-2-|-2-4--4------7--2-2-2-2-2-2-2-2-|
PM                                     . . . . . . . . 


cant figure out the solo. maybe later
            
Submit corrections


        Die Firma lessons Hard to play? Try these video lessons and learn fast Die Firma lessons
        
↑ Back to top | Tablatures and chords for acoustic guitar and electric guitar, ukulele, drums are parodies/interpretations of the original songs. You may use it for private study, scholarship, research or language learning purposes only