Home » B » Bodyjar »

Bodyjar - Windsok Tabs

Artists:  A B C D E F G H I J K L M N O P Q R S T U V W X Y Z # 

Windsok Tabs

(ver. 1) Click to play this song!
Bodyjar
INTRO (part A)		        (part B)
|------------------------|----------------------------|
|------------------------|----------------------------|
|------------------------|----------------------------|
|-7-7-10-7---10-10-7-10--|----------------------------|
|-7-7-10-7---10-10-7-10--|--88-77-55-33-55-33-22-33---|
|-5-5-8--5---8--8--5-8---|----------------------------|

|----------|----------------------------------------|
|----------|----------------------------------------|
|----------|----------------------------------------|
|--part A--|----------------------------------------|
|----------|--88-77-55-77-88-1010-88-77-------------|
|----------|----------------------------------------|

Part A, and then Part B

|----------|------------------|---------------------|
|----------|------------------|---------------------|
|----------|------------------|---------------------|
|--part A--|------------------|---------------------|
|----------|----88-77-55-33---|---77-88-1010-1212---|
|----------|------------------|---------------------|

|------------------------------| |------------------------------|
|------------------------------| |------------------------------|
|--x-7-x-x-7-x-x-7-x-10-5-10---| |--3-x-x-3-x-x-10-10-10-5-5-5--|
|--x-7-x-x-7-x-x-5-x-10-5-10---| |--3-x-x-3-x-x-10-10-10-5-5-5--|
|--x-5-x-x-5-x-x-5-x-8--7-8----| |--1-x-x-1-x-x-8--8--8--3-3-3--|
|------------------------------| |------------------------------|

VERSE

D
The feeling that you forgot  
C 
The reason you know is not  
Bb(b flat)          F 
A question to you now  
D 
Why can't you see  
Bb                   C 
You've got no say at all  
D
How does it feel to be
C
A dollar sign soon to be
Bb                 C
A way to sell it all
D
Straight to the top
Bb                   C
Without a doubt at all

CHORUS (a bit unsure)
G            D
Plant the seed
E5   D  D   E5    B
What a waste of time
G                  Bb                  C
You need to find a place to draw the line
(x2)


BRIDGE
(bass) and guitar just plays a few notes over the bass solo
A - C - D - F5 -- A - C -D-C-B-C-F5-E5-D-C

(Rhythm Guitar) 
A  - C - D - F5  (x2)
E5 - D - c - B   (x2)

Then play start of intro...then the last bit is
F5 - E5 - D - C - D - C - B - C - A - .A
            
Submit corrections

↑ Back to top | Tablatures and chords for acoustic guitar and electric guitar, ukulele, drums are parodies/interpretations of the original songs. You may use it for private study, scholarship, research or language learning purposes only