Home » B » Bodyjar »

Bodyjar - Emmaline Tabs

Artists:  A B C D E F G H I J K L M N O P Q R S T U V W X Y Z # 

Emmaline Tabs

(ver. 1) Click to play this song!
Bodyjar
bodyjar - emmaline

Intro (0:00)

Lead Guitar

e-------------------
B-------------------
G------------------- X3
D-----------------5-
A-333-6-5-4-222-44--
E-------------------

e-------------------
B-------------------
G------------------- 
D---------------4/5-
A-333-6-5-4-222-----
E-------------------

Rhthym Guitar

e-------------------
B-------------------
G-------------------
D-XXX-4-XX-2-XX-5-5- X3
A-XXX-4-XX-2-XX-5-5-
E-XXX-2-XX-0-XX-3-3-

e--------------------
B--------------------
G--------------------
D-XXX-4-XX-2-XX-5555-
A-XXX-4-XX-2-XX-5555-
E-XXX-2-XX-0-XX-3333-

Verse (0:13)

Rhthym Guitar

e--------------------------------------
B--------------------------------------
G--------------------------------------
D-9-999999-7-77-6-66-4-444444-4-444444- X2
A-9-999999-7-77-6-66-4-444444-4-444444-
E-7-777777-5-55-4-44-2-222222-2-222222-

Lead Guitar

e--------------------------------------
B--------------------------------------
G-------------------------------------- X2
D----------------------3-2-5/7---------
A--------------------------------------
E--------------------------------------

Pre Chorus  (0:27)

 Both Guitars

e---------------------------------
b---------------------------------
g-77-7---77-7-----7p6-88---7p6-88-
d-77--76-77--76-77-------77-------
a-55-----55-----------------------
e---------------------------------
pm..     ..

e---------------------------------
b---------------------------------
g-77-7---77-7----6-8-10b----------
d-77--76-77--76-7-----------------
a-55-----55-----------------------
e---------------------------------
pm..     ..

chorus (0:38)

Both Guitars

e---------------------------
b---------------------------
g-----------------4-4444444-
d-66-5-5-4-4-3-3------------
a-66-5-5-4-4-3-3------------
e-44-3-3-2-2-1-1------------


e------------------------------------
b------------------------------------
g-----------------4-4444444-33333333-
d-66-5-5-4-4-3-3---------------------
a-66-5-5-4-4-3-3---------------------
e-44-3-3-2-2-1-1---------------------

play intro

play verse

play pre chorus

Chorus 2

Both Guitars

e---------------------------
b---------------------------
g-----------------4-4444444-
d-66-5-5-4-4-3-3------------ x3
a-66-5-5-4-4-3-3------------
e-44-3-3-2-2-1-1------------


e------------------------------------
b------------------------------------
g-----------------4-4444444-33333333-
d-66-5-5-4-4-3-3---------------------
a-66-5-5-4-4-3-3---------------------
e-44-3-3-2-2-1-1---------------------

Interlude

Rhthym Guitar

e--------------------------------------
b--------------------------------------
g--------------------------------------
d-66--------66--------7777-9-10-101010-
a-66--------66--------7777-9-10-101010-
e-44-3-3-33-44-3-3-33-5555-7-8--8-8-8--

e--------------------------------------
b--------------------------------------
g--------------------------------------
d-66--------66--------7777-9-10-101010-
a-66--------66--------7777-9-10-101010-
e-44-3-3-33-44-3-3-33-5555-7-8--8-8-8--

e---------
b---------
g---------
d-555-6-7-
a-555-6-7-
e-333-4-5-

Lead Guitar (listen when to come in)

e---------------------------------
b-3-4-5-5-55-3-4-5-5-55-6-7-7-6-r-
g---------------------------------
d---------------------------------
a---------------------------------
e---------------------------------

e---------------------------
b-77777777-8888888888888888-
g---------------------------
d---------------------------
a---------------------------
e---------------------------

PLay chorus 2

thats it buy thier album , plastic skies
            
Submit corrections

↑ Back to top | Tablatures and chords for acoustic guitar and electric guitar, ukulele, drums are parodies/interpretations of the original songs. You may use it for private study, scholarship, research or language learning purposes only