Home » B » Bodo Wartke »

Bodo Wartke - An Dich Tabs

Artists:  A B C D E F G H I J K L M N O P Q R S T U V W X Y Z # 

An Dich Tabs

(ver. 1) Click to play this song!
Bodo Wartke
interpret:     Bodo Wartke
capo:          0
setting:       standart


zu verwendende Akkorde:

    C     Dm  Dm/C  Dm/B  Dbm/A  Em6   F/E   Gm    A     A/F#  Asus  Bb   Bb/A
e|--0--|--1--|--1--|--1--|--0--|--0--|--0--|--3--|--0--|--0--|--0--|--1--|--1--|
B|--1--|--3--|--3--|--3--|--2--|--3--|--1--|--3--|--2--|--2--|--3--|--3--|--3--|
G|--0--|--2--|--2--|--2--|--1--|--0--|--2--|--3--|--2--|--2--|--2--|--3--|--2--|
D|--2--|--0--|--0--|--0--|--2--|--2--|--3--|--5--|--2--|--2--|--2--|--3--|--3--|
A|--3--|--x--|--3--|--2--|--0--|--2--|--0--|--5--|--0--|--0--|--0--|--1--|--1--|
E|--0--|--x--|--x--|--x--|--0--|--0--|--0--|--3--|--0--|--2--|--0--|--1--|--1--|


                                   Dm                Dm/C                Dm/B            
    Dbm/A
e|------------------------------1-----------------1-------------------1-----------------------0-|
B|------------------------------3-----------------3-------------------3-----------------------2-|
G|----------------------------------------------------------------------------------------------|
D|----------------------------0-----------------------------------------------------------------|
A|----------------------------------------------3-------------------2-----------------------0---|
E|----------------------------------------------------------------------------------------------|
   Mir geht’s doch eigentlich ganz gut. Ich bin gesund. Ich hab genug zu essen,
Arbeit, Freunde, und

                            Dm                         Dm/C
e|-----0----------------------1----------------1---------1----------------1---|
B|-----2----------------------3----------------3---------3----------------3---|
G|----------------------------------------------------------------------------|
D|--------------------------0----------------0-----0--------------------------|
A|-0--------0------------------------------------------3----------------3---3-|
E|----------------------------------------------------------------------------|
   ich leb’ in einem freien Land. Ich werde weder verfolgt noch bedroht.

   Dm/B                                                      Dbm/A
e|------------------1----------------------------------1----------------0-|
B|------------------3----------------------------------3----------------2-|
G|------------------------------------------------------------------------|
D|------------------------------------------------------------------------|
A|-2-------------------------------------------------2---2---0------------|
E|------------------------------------------------------------------------|
   Das einzige, was ich vielleicht zu fürchten hätte,         wär’ der Tod.

          Gm                   C                      F          Dm
Zu meinem Glück fehlt mir kein Stück. Mir geht’s doch gut. Eigentlich. Aber,

                 Bb                Em6                   Dbm/A               Dm
e|---------------1-----------------0---------------------0-------------------1-|(3x)
B|---------------3-----------------3---------------------2-------------------3-|
G|---------------3-----------------0---------------------1-------------------2-|
D|---------------3-----------------2---------------------2-----------0---0---0-|
A|-1-------1-----1-----------------2---------0----0----------------------------|
E|---------------1--------0--0-------------------------------------------------|
   was ich auch tu, immerzu denke ich immer noch wieder doch nur an dich.

                 Bb                Em6                   Dbm/A               Dm
e|---------------1-----------------0---------------------0-------------------1-|
B|---------------3-----------------3---------------------2-------------------3-|
G|---------------3-----------------0---------------------1-------------------2-|
D|---------------3-----------------2---------------------2-----------0---0---0-|
A|-1-------1-----1-----------------2---------0----0----------------------------|
E|---------------1--------0--0-------------------------------------------------|
   Was ich auch tu, immerzu denke ich immer noch wieder doch nur...

                         Dm
Was hab’ ich nicht alles probiert,
                                 Dm/C
um nicht an dich zu denken, mich abzulenken,
           Dm/B
mir reinen Wein einzuschenken,
Asus
um mich darin zu ertränken.

        Dm
Mehrere Meere
              Dm/C
hab’ ich durchschwommen.
                Dm/B
Ich hab’ Sümpfe durchwatet, Wüsten durchquert
           Asus
und Gipfel erklommen.

                     Gm        C                 F                   Dm
Und ich zählte jeden Tag, jede Stunde und jede Sekunde, die dabei verstrich. Aber

                 Bb                Em6                   Dbm/A               Dm
e|---------------1-----------------0---------------------0-------------------1-|    (3x)
B|---------------3-----------------3---------------------2-------------------3-|
G|---------------3-----------------0---------------------1-------------------2-|
D|---------------3-----------------2---------------------2-----------0---0---0-|
A|-1-------1-----1-----------------2---------0----0----------------------------|
E|---------------1--------0--0-------------------------------------------------|
  was ich auch machte, jede Nacht verbrachte ich wach und dachte an dich.

                 Bb                Em6                   Dbm/A               Dm
e|---------------1-----------------0---------------------0-------------------1-|
B|---------------3-----------------3---------------------2-------------------3-|
G|---------------3-----------------0---------------------1-------------------2-|
D|---------------3-----------------2---------------------2-----------0---0---0-|
A|-1-------1-----1-----------------2---------0----0----------------------------|
E|---------------1--------0--0-------------------------------------------------|
   Was ich auch tu, immerzu denke ich immer noch wieder doch nur an dich.

Dm
Nie mehr wirst du zärtlich meinen Namen sagen
       Dm/C
so wie damals als wir uns noch in den Armen lagen.
    Dm/B                                       Bb/A
Von deiner Liebe blieb mir leider nichts außer Fragen,
         F/E    Dbm/A  Dm
die mich ohne Erbarmen plagen.

                                    Dm/C
Freunde sagen, es werde langsam mal Zeit,

dass ich mich von dir entwöhne.
    Dm/B
Sie sagen: „Andere Mütter haben auch schöne Töchter.“
          A/F#
Tja, doch leider auch schöne Söhne.

Gm                C                     F                    Dm
Du bist jetzt bei ihm und denkst sicher längst nicht mehr an mich. Aber

                 Bb                Em6                   Dbm/A               Dm
e|---------------1-----------------0---------------------0-------------------1-|(3x)
B|---------------3-----------------3---------------------2-------------------3-|
G|---------------3-----------------0---------------------1-------------------2-|
D|---------------3-----------------2---------------------2-----------0---0---0-|
A|-1-------1-----1-----------------2---------0----0----------------------------|
E|---------------1--------0--0-------------------------------------------------|
     ich denke oft und - schlimmer noch: - immer noch doch nur an dich.

                 Bb                Em6                   Dbm/A               Dm
e|---------------1-----------------0---------------------0-------------------1-|
B|---------------3-----------------3---------------------2-------------------3-|
G|---------------3-----------------0---------------------1-------------------2-|
D|---------------3-----------------2---------------------2-----------0---0---0-|
A|-1-------1-----1-----------------2---------0----0----------------------------|
E|---------------1--------0--0-------------------------------------------------|
   Was ich auch tu, immerzu denke ich immer noch wieder doch nur an dich.


Bb   A    Dm    (2x)

                      Bb        A                       Dm
Alles, was ich früher gern tat, macht auf einmal keinen Spaß mehr.
                     Bb                   A             Dm
Und die Welt um mich herum erscheint, als ob sie hinter Glas wär’.
            Bb           A                  A      Bb   A   Dm
So irre ich umher, tränenschwer, vor Kummer stumm, taub und blind
    Gm                      Dbm/A
und finde keinen Ausweg aus diesem Labyrinth.

SOLO:

e|-1---3---0---1---0---1---1---3---1---0-|    (2x)
B|-3---3---3---3---3---3---3---3---3---1-|
G|-2---2---2---2---2---2---2---2---2---2-|
D|-0---0---0---0---0---0---0---0---0---2-|
A|-x---x---x---3---3---3---2---2---2---0-|
E|-x---x---x---x---x---x---x---0---x---x-|

(diese Akkorde bilden das Solo, für Geschwindigkeit und Melodie höre dir bitte das Lied an.)

             Gm                    C                   F              Dm
Zwar ist mir klar, nach allem, was war, warst du sicherlich nicht die richtige für mich.

                 Bb                Em6                   Dbm/A               Dm
e|---------------1-----------------0---------------------0-------------------1-|
B|---------------3-----------------3---------------------2-------------------3-|
G|---------------3-----------------0---------------------1-------------------2-|
D|---------------3-----------------2---------------------2-----------0---0---0-|
A|-1-------1-----1-----------------2---------0----0----------------------------|
E|---------------1--------0--0-------------------------------------------------|
   Und dennoch denke ich bloß pausenlos

                 Bb                Em6                   Dbm/A
e|---------------1-----------------0---------------------0-|
B|---------------3-----------------3---------------------2-|
G|---------------3-----------------0---------------------1-|
D|---------------3-----------------2---------------------2-|
A|-1-------1-----1-----------------2---------0----0--------|
E|---------------1--------0--0-----------------------------|

                                            Dm             Dm/C
e|--------------------------------------------1--------------1-|
B|--------------------------------------------3--------------3-|
G|-------------------------------------------------------------|
D|------------------------------------------0------------------|
A|---------------------------------------------------------3---|
E|-------------------------------------------------------------|
   Ne, ansonsten geht’s mir eigentlich ganz gut. Ich bin gesund.

                    Dm/B                    Dbm/A
e|--------------------1------------------------0-|
B|--------------------3------------------------2-|
G|-----------------------------------------------|
D|-----------------------------------------------|
A|------------------2------------------------0---|
E|-----------------------------------------------|
   Ich hab genug zu essen, Arbeit, Freunde, und

                               Dm                              Dm/C
e|--------------0------------------1------1----------------------1---|
B|--------------2------------------3------3----------------------3---|
G|-------------------------------------------------------------------|
D|-----------------------------0-------0-----0-----------------------|
A|------------0---------0--------------------------------------3-----|
E|-------------------------------------------------------------------|
   ich weiß, irgendwie geht’s weiter. Ich komm’ schon über die Runden.

                                            Dm/B                                   Dbm/A
e|------------------1-------------------------1---------------------1--------------------------0-|
B|------------------3-------------------------3---------------------3-------------------------2--|
G|-------------------------------------------------------------------------------------------1---|
D|------------------------------------------------------------------------------------------2----|
A|--------3------------------3--------------2-------------2-------------------2----0-------------|
E|-----------------------------------------------------------------------------------------------|
   Ich hab’ wohl nur noch einfach nicht die Zeit gefunden, Zeit, von der es heißt,   sie 
Wunden.

         Gm                  C              F                Dm
Denn die Zeit, die läßt mich ja, soviel ist sicher, nicht im Stich. Das heißt

                 Bb                Em6                   Dbm/A               Dm
e|---------------1-----------------0---------------------0-------------------1-|    (3x)
B|---------------3-----------------3---------------------2-------------------3-|
G|---------------3-----------------0---------------------1-------------------2-|
D|---------------3-----------------2---------------------2-----------0---0---0-|
A|-1-------1-----1-----------------2---------0----0----------------------------|
E|---------------1--------0--0-------------------------------------------------|
  irgendwann denk’ ich dann an was-weiß-ich, nur an eins nicht:        an dich.

                 Bb                Em6                   Dbm/A               Dm
e|---------------1-----------------0---------------------0-------------------1-|
B|---------------3-----------------3---------------------2-------------------3-|
G|---------------3-----------------0---------------------1-------------------2-|
D|---------------3-----------------2---------------------2-----------0---0---0-|
A|-1-------1-----1-----------------2---------0----0----------------------------|
E|---------------1--------0--0-------------------------------------------------|
  Irgendwann dann kommt die Zeit, da denke ich sicher nicht mehr     an dich.

                 Bb                Em6                   Dbm/A               Dm
e|---------------1-----------------0---------------------0-------------------1-|
B|---------------3-----------------3---------------------2-------------------3-|
G|---------------3-----------------0---------------------1-------------------2-|
D|---------------3-----------------2---------------------2-----------0---0---0-|
A|-1-------1-----1-----------------2---------0----0----------------------------|
E|---------------1--------0--0-------------------------------------------------|
Ich freu' mich schon unbändig darauf, wenn ich schlussendlich nicht mehr ständig an dich 
muss.

                 Bb                Em6                   Dbm/A               Dm
e|---------------1-----------------0---------------------0-------------------1-|
B|---------------3-----------------3---------------------2-------------------3-|
G|---------------3-----------------0---------------------1-------------------2-|
D|---------------3-----------------2---------------------2-----------0---0---0-|
A|-1-------1-----1-----------------2---------0----0----------------------------|
E|---------------1--------0--0-------------------------------------------------|
Und sollten wir uns irgendwann mal wieder sehen und uns per Zufall einmal wieder 
dann

                 Bb                Em6                   Dbm/A               Dm
e|---------------1-----------------0---------------------0-------------------1-|
B|---------------3-----------------3---------------------2-------------------3-|
G|---------------3-----------------0---------------------1-------------------2-|
D|---------------3-----------------2---------------------2-----------0---0---0-|
A|-1-------1-----1-----------------2---------0----0----------------------------|
E|---------------1--------0--0-------------------------------------------------|
                         ist es OK, denn dann            tuts nicht mehr weh.

                 Bb                Em6                   Dbm/A               Dm
e|---------------1-----------------0---------------------0-------------------1-|
B|---------------3-----------------3---------------------2-------------------3-|
G|---------------3-----------------0---------------------1-------------------2-|
D|---------------3-----------------2---------------------2-----------0---0---0-|
A|-1-------1-----1-----------------2---------0----0----------------------------|
E|---------------1--------0--0-------------------------------------------------|
    Und ehe ich es mich verseh' denke ich sicherlich dann nicht mehr an dich.

                 Bb                Em6                   Dbm/A               Dm
e|---------------1-----------------0---------------------0-------------------1-|
B|---------------3-----------------3---------------------2-------------------3-|
G|---------------3-----------------0---------------------1-------------------2-|
D|---------------3-----------------2---------------------2-----------0---0---0-|
A|-1-------1-----1-----------------2---------0----0----------------------------|
E|---------------1--------0--0-------------------------------------------------|
                                        Da denke ich dann nicht mehr an dich.

                 Bb                Em6                   Dbm/A               Dm
e|---------------1-----------------0---------------------0-------------------1-|
B|---------------3-----------------3---------------------2-------------------3-|
G|---------------3-----------------0---------------------1-------------------2-|
D|---------------3-----------------2---------------------2-----------0---0---0-|
A|-1-------1-----1-----------------2---------0----0----------------------------|
E|---------------1--------0--0-------------------------------------------------|
                                                          Nicht mehr an dich.

                 Bb                Em6                   Dbm/A               Dm
e|---------------1-----------------0---------------------0----------------------1-|
B|---------------3-----------------3---------------------2---------------------3--|
G|---------------3-----------------0---------------------1--------------------2---|
D|---------------3-----------------2---------------------2-----------0---0---0----|
A|-1-------1-----1-----------------2---------0----0-------------------------------|
E|---------------1--------0--0----------------------------------------------------|
                                                                     An Dich.

------------------------------------------------------------------------

Beweis, dass er existiert :D
            
Submit corrections

↑ Back to top | Tablatures and chords for acoustic guitar and electric guitar, ukulele, drums are parodies/interpretations of the original songs. You may use it for private study, scholarship, research or language learning purposes only