Home » B » Bo Deans »

Bo Deans - Good Things Tabs

Artists:  A B C D E F G H I J K L M N O P Q R S T U V W X Y Z # 

Good Things Tabs

(ver. 2) Click to play this song!
Bo Deans
 Rating:
4/5 (4 votes)
                BoDeans

Good Things  (from the album "Black and White", (C)1991)
-----------

INTRO/MAIN RIFF used throughout song: (There's some type of echo on this part)
E-----------------------------------------------------------------------------
B-----------------------------------------------------------------------------
G--------4-4-4------4-4-4-------2-2-2------4-2--------------------------------
D--2-2-2-------2-2-2------2-2-2--------4-2------------------------------------
A-----------------------------------------------------------------------------
E-----------------------------------------------------------------------------
    the above is fine for our purposes, but the intro is REALLY played:
E-----------------------------------------------------------------------------
B-----------------------------------------------------------------------------
G-----------------------------------------------------------------------------
D--------9-9-9-------9-9-9-------7-7-7-----9-7--------------------------------
A--7-7-7-------7-7-7-------7-7-7-------9-7------------------------------------
E-----------------------------------------------------------------------------

Play the INTRO 6 times before starting in on the verses

Best guesses at the chords: (but note, the above riff repeats throughout)

Sunlight fall down on the fields
E             A

Sunlight fall down over me
E             A

Work all day, be all that I can be  yeah-heh
E             D2          A     E          A

Say I can say words only simple
E             A

Say I can say words only clear
E             A

But, oh, I can feel your heart is beating near.  Yeah-heh
E                        D2       A       E             A

Haunted love is all that I feel, when you're passing by
B               A                E               A

Haunted love is all that I see, it's there in your eyes
B               A               E             B

And I say
(No Chord)

No, no, no, don't pass me over No, no, no, don't pass me by
E           A                  E           A

See I can see good things for you and I
E             D2              A       E

Yeah, good things for you 
      A               E


Give I can give love and attention
Give I can give all time away
Only to one heart I can give today.
Be I can be man full of color
Be I can be man black or white
But only to one heart I can be tonight

Haunted love is all that I feel, when you're passing by
Haunted love is all that I see, it's there in your eyes

And I say
No, no, no, don't pass me over No, no, no, don't pass me by
See I can see good things for you and I
Yeah, good things for you 

SOLO Here  (Somewhere between and around 3rd and 7th frets of second string)

Haunted love is all that I see, it's there in your eyes

And I say
No, no, no, don't pass me over No, no, no, don't pass me by
See I can see good things for you and I
Yeah, good things for you 

CHORD FORMATIONS:
-----------------
E  x 2 2 1 0 0 
A  x x 2 2 2 0
D2 x x 0 2 3 x
B  2 2 2 4 4 2
            
Submit corrections

↑ Back to top | Tablatures and chords for acoustic guitar and electric guitar, ukulele, drums are parodies/interpretations of the original songs. You may use it for private study, scholarship, research or language learning purposes only