» » »

Bo Burnham - From Gods Perspective Tabs

Artists:  A B C D E F G H I J K L M N O P Q R S T U V W X Y Z # 

From Gods Perspective Tabs

(ver. 1) Click to play this song!
Bo Burnham
 Rating:
3.6/5 (23 votes)

 From Gods Perspective  lessons Tabs too difficult? Try these video lessons and learn fast
 
                1. small intro
e|---0-------0---------1--------------0------0-----------------------------------|
B|-1---1--1----1-----1---1---1~-----1---1--1---1-------3----3--1~--1------1---1--|
G|-2------0------0---2-------0~-----2------0-----0-----0----0--2~--0------0---0--|
D|-2------2----------3-------2~-----2------2-----------0----0--3~--2-----2---0---|
A|-0------3------------------3~-----0------3-----------------------3----3---2----|
E|-------------------1-------------------------------3----2----1~----------------|


2. Verse


The Books you think I wrote are way too thick...                               1
I don't think masturbation is obscene                                          2
you argue    and you bicker   and you fight                                    3          
e|----------------------------------------------------------------------------|
B|--1-----------------1-------------1---1------1---1--(1)---------------------|
G|--2--------------1--2----------2------0------0---0--(0)---------------------|
D|--2---------2-------3-----------------2----2--------(0)---------------------|
A|--0-----0-----------------------------3--3-----3-----2----------------------|
E|--------------------1-----1-------------------------------------------------|


Who needs a thousand metaphors to figure out you shouldn't be a               1
Its absolutely     natural and the weirdest f*cking thing I've ever seen.     2  
Atheists and      catholics,    jews and       hindus argue day and           3
e|----------------------------------------------------------------|
B|--1-------------1---1--------1---1------1------3----------------|
G|--2---------2-------2-----2------0------0------0-------0--------|
D|--2-----------------3------------2----2--------0-----0----------|
A|--0-----0------------------------3--3---------------------------|
E|--------------------1---1----------------------3---3------------|


dick?      And I don't watch you when you sleep!                                1
        you make my   job a   living   hell        I send                       2
   night. over       what  they  think is true                                  3
e|-----------------------------------------------------------------------------|
B|---1-----------------1-------------1---1------1---1--(1~)--------------------|
G|---2--------------1--2----------2------0------0---0--(0~)--------------------|
D|---2---------2-------3-----------------2----2--------(0~)--------------------|
A|---0-----0-----------------------------3--3-----3-----2~---------------------|
E|---------------------1-----1-------------------------------------------------|


surprisingly I don't use             my omnipotence to be a f*cking creep!    1
  gays to fix overpopulation...                   and boy did that go well..  2
But no one entertains the thought that maybe god does not believe in you!     3
e|--------------------------------------------------------------------------|
B|--1--------1---1-----------1----------1------1------3---------------1~----| < keep these notes
G|--2-----2------2-------2--------------0------0------0-------0-------2~----| < ringing until
D|--2------------3----------------------2----2--------0-----0---------3~----| < the C Chord
A|--0--0--------------------------------3--3--------------------------------|
E|---------------1----1-------------------------------3---3-----------1~----| < in the "chorus"!


3. "Chorus"-kinda stuff

 You're not going to heaven! Why the f*ck would you think, I'd ever kick it with you ? 1
 You're not going to heaven! Eat  a  thousand   crackers,   sing  a  million    hymns  2
You pray so badly for heaven! Knowing     any       day might be the day that you die  3
e|------------------------------------------------------------------------------------|
B|-----------1~------3~----1~------------------------1~--------------3~-----------1~--|
G|-----------0~------0~----2~------------------------0~--------------0~-----------2~--|
D|-----------2~------0~----3~------------------------2~--------------0~-----------3~--|
A|-----------3~--------------------------------------3~-------------------------------|
E|-------------------3-2-3-1~----------------------------------------3~-----------1~--|


 You're not gooing        to heaven! There's a trillion aliens cooler than        you!   1
 You're not gooing        to heaven! You're not my children, you're a bad game of  sims! 2
maybe life on earth could be heaven. Doesn't just the thought of it make it worth a try? 3
e|--------------------------------------------------------------------------------------|
B|-------------3----------3-------1~--------------------1-----------------3------3---1~-|
G|-------------0----------0-------2~--------------------0-----------------0------0---2~-|
D|-------------2----------0-------3~--------------------2-----------------0----------3~-|
A|-------------3----------------------------------------3-------------------------------|
E|------------------------3-------1~--------------------------------------3-3-2------1~-|


3. "Bridge"-kinda stuff

You shouldn't abstain from rape, just cause you think that I want you to      1
You shouldn't abstain from pork, just cause you think that I want you to      2
I'm not gonna give you    love just cause   I know that you want me to        3
e|---------------------------------------------------------------------------|
B|---1~--------------------1-------------------------1----------1~-----------|
G|---2~--------------------2-------------------------0----------0~-----------|
D|---3~--------------------0-------------------------------------------------|
A|-------------------------3--------------------3------------2--------0~-----|
E|---1~----------------------------------------------------------------------|


You shouldn't rape cause rape is a f**ked up thing to do!                       1
You     can     eat      pork cause why the f*ck would I give a sh*t ?          2
If you want love then the love has gotta come from you                          3
e|-----------------------------------------------------------------------------|
B|---1~--------------------1------------------------(3~)-----------------------|
G|---2~--------------------0-------------------------0~------------------------|
D|---3~--------------------2-------------------------2~------------------------|
A|-------------------------3-------------------------3~------------------------|
E|---1~------------------------------------------------------------------------|


(you can play the intro while saying "Pretty obvious(...)","I created the universe(...)" if you want to)


4. "Breakdown"-kinda stuff

My love's the typ of thing that you have to earn and when you earn it, you won't need it!
e|----------------------------------------------------------------------------------------|
B|--1------------------------1----------------1----------------1----------------1-----3---|
G|--0------------------------0----------------0----------------0----------------0-----0---|
D|--2------------------------2----------------0----------------2----------------2-----0---|
A|--3------------------------3----------------2----------------3----------------3---------|
E|------------------------------------------------------------------------------------3---|



Now for those who don't know the song, here's the order:
1. Intro
2. First Verse
3. First Chorus
4. First Bridge
5. Second Verse
6. Second Chorus
7. Second Bridge
8. Third Verse
9. Third Chorus
10.Breakdown (x2)
11.Third Bridge            
Submit corrections


        From Gods Perspective  lessons Hard to play? Try these video lessons and learn fast From Gods Perspective  lessons
        
↑ Back to top | Tablatures and chords for acoustic guitar and electric guitar, ukulele, drums are parodies/interpretations of the original songs. You may use it for private study, scholarship, research or language learning purposes only