» » »

Bob Dylan - It Aint Me Babe Tabs

Artists:  A B C D E F G H I J K L M N O P Q R S T U V W X Y Z # 

It Aint Me Babe Tabs

(ver. 2) Click to play this song!
Bob Dylan
 Rating:
2.8/5 (23 votes)

 It Aint Me Babe lessons Tabs too difficult? Try these video lessons and learn fast
 
                 Intro
  Q=103
  G         C       G
 4/4                                           2/4
  Gtr I (Ac. Gtr.)
  E E S S S S S S E E E   S S E E E S S E E E   S S E E E
|-----------------------|---------------------|-----------||
|---0-0-0---------1-----|-----0---0-----0---0-|-----0-----||
|---0-0-0-0---0-0-0---0-|-0-0-0---0-0-0-0---0-|-0-0-0-----||
|-0-0-0-0-0h2-2-2-2-0-0-|-0-0-0---0-0-0-0---0-|-0-0-0-----||
|-----------------------|---------------------|---------0-||
|-3-----------------3---|-------3---------3---|-------3---||


 1st & 3rd Verses
  $
  Dadd11
 4/4
   E S S E S S E S S E S S
|--------------------------|
|----3-3---3-3---3-3---3-3-|
|----0-0---0-0---0-0---0-0-|
|----4-4---4-4---4-4---4-4-|
|-/5-----5-----5-----5-----|
|--------------------------|


  C                           Dadd11    D7
  E S S E S S E S S S S S S   E S S E E E S S S S S S
|---------------------------|-------------2-2-2-2-2-2--|
|---1-1---1-1---1-1-1-1-1-1-|---3-3-3-3---1-1-1-1-1-1--|
|---0-0---0-0---0-0-0-0-0-0-|---0-0-0-0---2-2-2-2-2-2--|
|---2-2---2-2---2-2-2-2-2-2-|---4-4-4-4-0--------------|
|-3-----3-----3-------------|-5------------------------|
|---------------------------|--------------------------|


  G         C       G                             Dadd11
  E E S S S S S S E E E   S S E E E S S E E E   S S S S S S S S E S S E S S
|---------------3-------|---------------------|-------------------------------|
|---------------1-1---0-|-0-0-0---0-0-0-0-----|-----3-3-3-3-3-3---3-3---3-3---|
|---0-0-0-0---0-0-0---0-|-0-0-0---0-0-0-0-----|-----0-0-0-0-0-0---0-0---0-0---|
|---0-0-0-0h2-2---2---0-|-0-0-0---0-0-0-0---0-|-----4-4-4-4-4-4---4-4---4-4---|
|-----------------------|---------------------|-4s5-------------5-----5-------|
|-3-----------------3---|-------3---------3---|-------------------------------|


  C
  E S S S S S S E S S S S S S
|-----------------------------|
|---1-1-1-1-1-1---1-1-1-1-1-1-|
|---0-0-0-0-0-0---0-0-0-0-0-0-|
|---2-2-2-2-2-2---2-2-2-2-2-2-|
|-3-------------3-------------|
|-----------------------------|


  Dadd11    D7              G         C       G
  E S S E E E S S S S S S   E E S S S S S S E E E
|-------------2-2-2-2-2-2-|---3-3-3-------3-------|
|---3-3-3-3---1-1-1-1-1-1-|---0-0-0-------1-1---0-|
|---0-0-0-0---2-2-2-2-2-2-|---0-0-0-0---0-0-0---0-|
|---4-4-4-4-0-------------|---0-0-0-0h2-2---2---0-|
|-5-----------------------|-----------------------|
|-------------------------|-3-----------------3---|


                        Bmadd11/F#                Am/E
  S S E E E S S E E E   E E S S S S E E S S S S   S S E S S S S E E S S S S
|---------------------|---0-0-0-0-0---0-0-0-0-0-|-----0-0-0-0-0---0-0-0-0-0---|
|-0-0-0---0-0-0-0-----|---3-3-3-3-3---3-3-3-3-3-|-----1-1-1-1-1---1-1-1-1-1---|
|-0-0-0---0-0-0-0-----|---4-4-4-4-4---4-4-4-4-4-|-----2-2-2-2-2---2-2-2-2-2---|
|-0-0-0---0-0-0-0---0-|-4-----------4-----------|-0h2-----------2-------------|
|---------------------|-------------------------|-----------------------------|
|-------3---------3---|-------------------------|-----------------------------|


  Bmadd11/F#
  E E S S S S E E S S S S
|---0-0-0-0-0---0---0-0-0-|
|---3-3-3-3-3---3---3-3-3-|
|---4-4-4-4-4---4---4-4-4-|
|-4-----------4---4-------|
|-------------------------|
|-------------------------|


  Am/E          Am            Bmadd11/F#
  S S E S S S S E E S S S S   E E S S S S E E S S S S
|-----0-0-0-0-0---0-0-0-0-0-|---0-0-0-0-0---0---0-0-0-|
|-----1-1-1-1-1---1-1-1-1-1-|---3-3-3-3-3---3---3-3-3-|
|-----2-2-2-2-2---2-2-2-2-2-|---4-4-4-4-4---4---4-4-4-|
|-0h2-----------------------|-4-----------4---4-------|
|---------------0-----------|-------------------------|
|---------------------------|-------------------------|


  Am/E        Am
  S S E S S E E S S S S S S
|-----0-0-0-0---0-0-0-0-0-0-|
|-----1-1-1-1---1-1-1-1-1-1-|
|-----2-2-2-2---2-2-2-2-2-2-|
|-0h2---------------2-------|
|-------------0-------------|
|---------------------------|


  Bmadd11/F#                  Am/E        Am
  E E S S S S E S S S S S S   S S E S S E E S S S S S S
|---0-0-0-0-0---0-0---0-0-0-|-----0-0-0-0---0-0-0-0-----|
|---3-3-3-3-3---3-3---3-3-3-|-----1-1-1-1---1-1-1-1-----|
|---4-4-4-4-4---4-4---4-4-4-|-----2-2-2-2-2-2-2-2-2-----|
|-4-----------4-----4-------|-0h2---------2-----2---0-0-|
|---------------------------|-------------0---------0-0-|
|---------------------------|---------------------------|


  C/G
  E S S S S S S E S S S S S S
|-----------------------------|
|---1-1-1-1-1-1---1-1-1-1-1-1-|
|---0-0-0-0-0-0---0-0-0-0-0-0-|
|---2-2-2-2-2-2---2-2-2-2-2-2-|
|-3-3-3-3-3-3-3-3-3-3-3-3-3-3-|
|-3-------------3-------------|


                            Chorus
  D/A
  E E S S S S E E S S S S    E E S S S S E E S S S S
|-------------------------||--------------------------|
|---3-3-3-3-3---3-3-3-0-0-||---0-0-0-0-0---0-0-0-0h1--|
|---2-2-2-2-2---2-2-2-0-0-||---0-0-0-0-0---0-0-0-0----|
|-0-0-0-0-0-0-0-0-0-0-0-0-||---0-0-0-0-0---0-0-0-0h2--|
|-0-----------0-----------||--------------------------|
|-------------------------||-3-----------3------------|


                                                                       To Coda
  C/G       D/A           G                         C/E         D/A
  E E E S S E E S S S S   E E S S S S E E S S S S   E E S S S S E S S S S S S
|-----------------------|-------------------------|---0------------------------|
|-1-1-1-1-1-3-3-----3-3-|-0-0-0-0-0-0---0-0-0-0-0-|-1-1-1-1-1-1-3-3-3-3-3-0-0--|
|-0-0-0-0-0-2-2-2-2-2-2-|-0-0-0-0-0-0---0-0-0-0-0-|-0-0-0-0-0-0-2-2-2-2-2-0-0--|
|-2-2-2-2-2-0-0-0-0-0-0-|-0-0-0-0-0-0---0-0-0-0-0-|-2-2-2-2-2-2-0-0-0-0-0-0-0--|
|---------------0-0-----|-------------------------|-----------------------0-0--|
|-3-3-3-----------------|-3-----------3-----------|----------------------------|


                              Interlude
  G                            Dadd11
  E E S S S S E S S S S S S    E S S S S S S E S S S S S S
|---------------------------||-----------------------------|
|---0-0-0-0-0---0-0-0-0-0-0-||---3-3-3-3-3-3---3-3---3-3-3-|
|---0-0-0-0-0---0-0-0-0-0-0-||---0-0-0-0-0-0---0-0---0-0-0-|
|-0-0-0-0-0-0---0-0-0-0-0-0-||---4-4-4-4-4-4---4-4-4-4-4-4-|
|---------------------------||-5-------------5-----5-------|
|-3-----------3-------------||-----------------------------|


  C             D     D/A
  E S S S S S S E S S S S S S
|------------------------------|
|---1-1-1-1-1-1---3-3---3------|
|---0-0-0-0-0-0---2-2---2-2-2--|
|---2-2-2-2-2-2-0-0-0---0-0-0--|
|-3-------------------0---0-0--|
|------------------------------|


  G           C       G
  E S S S S S S S S E E E   S S E E E S S E E E
|-------------------------|---------------------||
|---0-0-0-0-------1-1---0-|-----0---0-----0---0-||
|-0-0-0-0-0-0---0-0-0---0-|-0-0-0---0-0-0-0---0-||
|-0-0-0-0-0-0h2-2-2-2---0-|-0-0-0---0-0-0-0---0-||
|-------------------------|---------------------||
|-3-------------------3---|-------3---------3---||


 2nd Verse
  Dadd11
  E S S S S S S E S S S S S S
|------------------------------|
|---3-3-3-3-3-3---3-3-3-3-3-3--|
|---0-0-0-0-0-0---0-0-0-0-0-0--|
|---4-4-4-4-4-4---4-4-4-4-4-4--|
|-5-------------5--------------|
|------------------------------|


  C7        C           Dadd11    D7              G         C       G
  E E S S E E E S S E   E E S S E E S S S S S S   E E S S S S S S E E E
|---------------------|-------------2-2-2-2-2-2-|---------------3-------|
|---1-1-1-1---1-1-1-1-|---3-3-3-----1-1-1-1-1-1-|---------------1-1---0-|
|---3-3-3-3---0-0-0-0-|---0-0-0-----2-2-2-2-2-2-|---0-0-0-0---0-0-0---0-|
|---2-2-2-2---2-2-2-2-|---4-4-4-4-0-------------|---0-0-0-0h2-2---2---0-|
|-3---------3---------|-5-------5---------------|-----------------------|
|---------------------|-------------------------|-3-----------------3---|


                          Dadd11
  S S E E E S S E E E   S S S S S S S S E S S S S S S
|---------------------|-------------------------------|
|-0-0-0---0-0-0-0-----|-----3-3-3-3-3-3---3-3-3-3-3-3-|
|-0-0-0---0-0-0-0-----|-----0-0-0-0-0-0---0-0-0-0-0-0-|
|-0-0-0---0-0-0-0-----|-----4-4-4-4-4-4---4-4-4-4-4-4-|
|-------------------0-|-4s5-------------5-------------|
|-------3---------3---|-------------------------------|


  C
  E S S S S S S E S S S S S S
|-----------------0-0-0-0-0-0-|
|---1-1-1-1-1-1---1-1-1-1-1-1-|
|---0-0-0-0-0-0---0-0-0-0-0-0-|
|---2-2-2-2-2-2---2-2-2-2-2-2-|
|-3-------------3-------------|
|-----------------------------|


  Dadd11        D7              G         C       G
                                                       3/4
  E S S S S S S E S S S S S S   E E S S S S S S E E E   S S E E E S S S S
|-----------------2-2-2-2-2-2-|---3-3-3-------3-------|--------------------|
|---3-3-3-3-3-3---1-1-1-1-1-1-|---0-0-0-------1-1---0-|-0-0-0---0-0-0-0-0--|
|---0-0-0-0-0-0---2-2-2-2-2-2-|---0-0-0-0---0-0-0---0-|-0-0-0---0-0-0-0-0--|
|---4-4-4-4-4-4-0-------------|---0-0-0-0h2-2---2---0-|-0-0-0---0-0-0-0-0--|
|-5---------------------------|-----------------------|--------------------|
|-----------------------------|-3-----------------3---|-------3------------|


  Bmadd11/F#
 4/4
  S S S S S S S E S S E S S S
|-----0-0---0-0---0-0---0-0-0-|
|-----3-3---3-3---3-3---3-3-3-|
|-----4-4-4-4-4---4-4---4-4-4-|
|-2s4-----4-----4-----4-------|
|-----------------------------|
|-----------------------------|


  Am/E                      Bmadd11/F#
  S S S S S S S S E E E E   E S S S S S S E S S S S S S
|-----0-0-0-0-0-0---0---0-|---0-0-0-0-0-0---0-0-0-0-0-0-|
|-----1-1-1-1-1-1---1---1-|---3-3-3-3-3-3---3-3-3-3-3-3-|
|-----2-2-2-2-2-2---2---2-|---4-4-4-4-4-4---4-4-4-4-4-4-|
|-0h2-------------2---2---|-4-------------4-------------|
|-------------------------|-----------------------------|
|-------------------------|-----------------------------|


  Am/E          Am
  S S S S S S S E S S S S S S S
|---0-0-0-0-0-0---0-0-0-0-0-0-0-|
|---1-1-1-1-1-1---1-1-1-1-1-1-1-|
|---2-2-2-2-2-2---2-2-2-2-2-2-2-|
|-2---------------2-2-2-2-2-2-2-|
|---------------0---------------|
|-------------------------------|


  Bmadd11/F#                    Am
  E S S S S S S E S S S S S S   S S S S S S S S E E S S S S
|---0-0-0-0-0-0---0-0-0-0-0-0-|-----0-0-0-0-0-0---0-----------|
|---3-3-3-3-3-3---3-3-3-3-3-3-|-----1-1-1-1-1-1---1-1-1-1-1---|
|---4-4-4-4-4-4---4-4-4-4-4-4-|-----2-2-2-2-2-2---2-2-2-2-2---|
|-4-------------4-------------|-0h2-------------2---2-2-2-2---|
|-----------------------------|-0-----------------------------|
|-----------------------------|-------------------------------|


  Bmadd11/F#                    Am/E          Am
  E S S S S S S E S S S S S S   E S S S S S S E E S S S S
|---0-0-0-0-0-0---0-0---0-0-0-|---0-0-0-0-0-0---0-0-0-0---|
|---3-3-3-3-3-3---3-3---3-3-3-|---1-1-1-1-1-1---1-1-1-1---|
|---4-4-4-4-4-4---4-4-4-4-4-4-|---2-2-2-2-2-2---2-2-2-2-0-|
|-4-------------4-----4-------|-2---------------2-2-2-2-0-|
|-----------------------------|---------------0---0-0-0-0-|
|-----------------------------|---------------------------|


  C/G
 9/8
  E E S S S S E E S S S S S S
|-------------------------------|
|---1-1-1-1-1---1-1-1-1-1-1-1---|
|---0-0-0-0-0---0-0-0-0-0-0-0---|
|---2-2-2-2-2---2-2-2-2-2-2-2---|
|---3-3-3-3-3---3-3-3-3-3-3-3---|
|-3---3-------3---3-------------|


  D             D7
 4/4
  E S S S S S S E S S S S S S
|-----------------2-2-2-2-2-0-||
|-3-3-3-3-3-3-3---1-1-1-1-1-0-||
|-2-2-2-2-2-2-2---2-2-2-2-2-0-||
|-0-0-0-0-0-0-0-0-0-0-0-0-0-0-||
|---------------0-------------||
|---------------2-------------||


 Chorus
  G                         C/G           D/A
  E E S S S S E E S S S S   E S S S S S S E S S S S S S
|-------------------------|-----------------------------|
|---0-0-0-0-0---0-0-0-0-0-|-1-1-1-1-1-1-1-3-3-3-3-3-3-3-|
|---0-0-0-0-0---0-0-0-0-0-|-0-0-0-0-0-0-0-2-2-2-2-2-2-2-|
|---0-0-0-0-0---0-0-0-0-0-|-2-2-2-2-2-2-2-0-0-0-0-0-0-0-|
|-------------------------|---------------0-------------|
|-3-----------3-----------|-3---------------------------|


  G                         C/E           D
  E E S S S S E E S S S S   E S S S S S S E S S S S S S
|-------------------------|---0-0-0-0-0-0---2-2-2-2-----||
|---0-0-0-0-0---0-0-0-0-0-|-1-1-1-1-1-1-1---3-3-3-3-----||
|---0-0-0-0-0---0-0-0-0-0-|-0-0-0-0-0-0-0-2-2-2-2-2-2-2-||
|---0-0-0-0-0---0-0-0-0-0-|-2-2-2-2-2-2-2-0-0-0-0-0-0-0-||
|-------------------------|-------------------------0-0-||
|-3-----------3-----------|-----------------------------||


 Interlude
  Dadd11
  E S S E S S E S S S S S S
|---------------------------|
|---3-3---3-3---3-3-3-3-3-3-|
|---0-0---0-0---0-0-0-0-0-0-|
|---4-4---4-4---4-4-4-4-4-4-|
|-5-----5-----5-------------|
|---------------------------|


  C
  E S S S S S S E S S S S S S
|---0-0-0-0-0-0---0-0-0-0-0-0-|
|---1-1-1-1-1-1---1-1-1-1-1-1-|
|---0-0-0-0-0-0---0-0-0-0-0-0-|
|---2-2-2-2-2-2---2-2-2-2-2-2-|
|-3-------------3-------------|
|-----------------------------|


  Dadd11      D7              G       C
  E S S E S S E S S S S S S   E S S S S S S E E S S E
|-----------------2-2-2---2-|-------------------------|
|---3-3---3-3---1-1-1-1-1-1-|---0-0-0h1-1-1-1-1-1-1-1-|
|---0-0---0-0---2-2-2-2-2-2-|-0-0-0-0-0-0-0-0-0-0-0-0-|
|---4-4---4-4---0-0-0-0-0-0-|-0-0-0-0h2-2-2-2-2-2-2-2-|
|-5-----5-----0-0-------0---|-------------------------|
|---------------------------|-3-----------------------|


                                         Outro
                          D.S. al Coda &
  G                                       G
                       2/4               4/4
  E E S S E E E S S E   E S S S S S S     E S S S S S S E S S S S S S
|---------------------|----------------||-----------------------------|
|---0-0-0-0---0-0-0-0-|---0-0-0-0-0-0--||---0-0-0-0-0-0---0-0-0-0-0-0-|
|---0-0-0-0---0-0-0-0-|---0-0-0-0-0-0--||---0-0-0-0-0-0---0-0-0-0-0-0-|
|---0-0-0-0---0-0-0-0-|---0-0-0-0-0-0--||---0-0-0-0-0-0---0-0-0-0-0-0-|
|---------------------|----------------||-----------------------------|
|-3---------3---------|-3--------------||-3-------------3-------------|


    Dadd11                    C
  E E S S S S E S S S S S S   E S S S S S S E S S S S S S
|---------------------------|------------------------------|
|-0-3-3-3-3-3---3-3-3-3-3-3-|---1-1-1-1-1-1---1-1-1-1-1-1--|
|-0-0-0-0-0-0---0-0-0-0-0-0-|---0-0-0-0-0-0---0-0-0-0-0-0--|
|-0-4-4-4-4-4---4-4-4-4-4-4-|---2-2-2-2-2-2---2-2-2-2-2-2--|
|---5---------5-------------|-3-------------3--------------|
|---------------------------|------------------------------|


  Dadd11        D7              G       C       G
  E S S S S S S E S S S S S S   E E E S S E E E  E   +W
|-----------------2-2-2-2-2-2-|-----------------^3-|-(3)----*|
|---3-3-3-3-----1-1-1-1-1-1-1-|---0-0-0h1-1-1---^0-|-(0)----*|
|---0-0-0-0-0-0-2-2-2-2-2-2-2-|---0-0-0-0-0-0-0-^0-|-(0)----*|
|---4-4-4-4-0-0-0-0-0-0-0-0-0-|---0-0-0h2-2-2-0-^0-|-(0)----*|
|-5---------0-0-0-------------|--------------------|--------*|
|-----------------------------|-3-------------3-^3-|-(3)----*|            
Submit corrections


        It Aint Me Babe lessons Hard to play? Try these video lessons and learn fast It Aint Me Babe lessons
        
↑ Back to top | Tablatures and chords for acoustic guitar and electric guitar, ukulele, drums are parodies/interpretations of the original songs. You may use it for private study, scholarship, research or language learning purposes only