» » »

Bob Dylan - Girl From The North Country Tabs

Artists:  A B C D E F G H I J K L M N O P Q R S T U V W X Y Z # 

Girl From The North Country Tabs

(ver. 2) Click to play this song!
Bob Dylan
 Rating:
3.3/5 (25 votes)

 Girl From The North Country lessons Tabs too difficult? Try these video lessons and learn fast
 
                 Intro
  Q=98
  G   C/G                               G
 2/4
  Gtr I (Ac. Gtr. w/ capo 3rd fret)
  E E S S S S    E  S S S S S S    E  E S S S S
|---3---------|---------------3-|-(3)---------3-|
|---0-------1-|-(1)-1-----------|-----1---------|
|-------0-----|-----------0-----|---------0-----|
|---0-----2---|-----0h2-----0---|-----2-----0---|
|-------------|-----------------|---------------|
|-3---3-------|--3------3-------|--3----3-------|


  C/G   G
   E  E S S S S   E E S S E   E E S S E
|-(3)---------3-|-----------|-----------|
|-----1---------|-----------|-----------|
|---------0-----|-------0---|-------0---|
|-----2-----0---|---2-----0-|---0-----0-|
|---------------|-----------|-----------|
|--3----3-------|-3---3-----|-3---3-----|


               1st, 2nd & 5th Verses
            $
                Em9
  E E S S E     E E S S E   E E S S E
|-----------||------------|-----------|
|-----------||o---3-------|---3-------|
|-------0---||--------0---|-------0---|
|---0-----0-||----4-----4-|---4-----0-|
|-----------||o-----------|-----------|
|-3---3-----||--0---0-----|-0---0-----|


  D7/F#       G       C/G         G
  E E S S E   E E S S S S    E  E S S S S
|-----------|-------------|-----------------|
|-----------|---0-------1-|-(1)-1-------0---|
|---2---2---|-------0-----|---------0-------|
|---0-----0-|---0-----2---|-----2-----0-----|
|-----------|-------------|-----------------|
|-2---2-----|-3---3-------|--3----3---------|


                Em9
   E  E S S E   E E S S E   E E S S E
|-------------|-----------|-----------|
|-(0)-0-------|---3-------|---3-------|
|---------0---|-------2---|-------0---|
|-----0-----0-|---4-----4-|---4-----0-|
|-------------|-----------|-----------|
|--3----3-----|-0---0-----|-0---0-----|


  D7/F#         G         C/G         G
  E E S S S S    E  E S S S S    E  E S S S S
|-------------|---------------|----------------|
|-------1---0-|-(0)-0-------1-|-(1)-1-------0--|
|---2---------|---------0-----|---------0------|
|---0-----0---|-----0-----2---|-----2-----0----|
|-------------|---------------|----------------|
|-2---2-------|--3----3-------|--3----3--------|


                Em                  C/G
   E  E S S E   E E S S E   E E S S S S
|-------------|-----------|-------------|
|-(0)-0-------|---0-------|---0-------1-|
|---------0---|-------0---|-------0-----|
|-----0-----0-|---2-----2-|---2-----2---|
|-------------|-----------|-------------|
|--3----3-----|-0---0-----|-0---0-------|


        G                 C/G         G
   E  E S S S S   E E S S S S    E  E S S S S
|---------------|-------------|---------------|
|-(1)-1-------0-|---0-------1-|-(1)-1-------0-|
|---------0-----|-------0-----|---------0-----|
|-----2-----0---|---0-----2---|-----2-----0---|
|---------------|-------------|---------------|
|--3----3-------|-3---3-------|--3----3-------|


                Em9
   E  E S S E   E E S S E   E E S S S S
|-------------|-----------|-------------|
|-(0)-0-------|---3-------|-------------|
|---------0---|-------0---|-------0---0h|
|-----0-----0-|---4-----4-|---4-----4---|
|-------------|-----------|-------------|
|--3----3-----|-0---0-----|-0---0-------|


              1.
     To Coda
  D7/F#   G            C/G         G
  E E S S E    E E S S S S    E  E S S S S
|------------|-------------|---------------|
|---1--------|---0-------1-|-(1)-1-------0-|
|-2-----2----|-------0-----|---------0-----|
|---0-----0--|---0-----2---|-----2-----0---|
|------------|-------------|---------------|
|-2---2------|-3---3-------|--3----3-------|


                             2.
                              C/G G                       D7/F#
   E  E S S E   E E S S E     E E S S S S   E E S S S S   S S S S  S  S S S
|-------------|------------||-------------|-------------|-------2-(2)---------|
|-(0)-0-------|-----------o||---1-------0-|---0-------0h|=1---------------1p==|
|---------0---|-------0----||-------0-----|-------0-----|---2---------2-------|
|-----0-----0-|---0-----0--||---2-----0---|---0-----0---|-----0---------0-----|
|-------------|-----------o||-------------|-------------|---------------------|
|--3----3-----|-3---3------||-3---3-------|-3---3-------|-2--------2----------|


                           3rd & 4th Verses
  G                         Em9                       D7/F#
  E E S S E   E E S S E     E E S S E   E E S S S S   E E S S E
|-----------|-----------||------------|-------------|-----------|
|-0-0-------|---0-------||o---3-------|---3---------|---1-------|
|-------0---|-------0---||--------0---|-------0---0h|=2-----2---|
|---0-----0-|---0-----0-||----4-----4-|---4-----4---|---0-----0-|
|-----------|-----------||o-----------|-------------|-----------|
|-3---3-----|-3---3-----||--0---0-----|-0---0-------|-2---2-----|


  G       C/G         G
  E E S S S S    E  E S S S S   E E S S E
|-------------|---------------|-----------|
|---0-------1-|-(1)-1-------0-|---0-------|
|-------0-----|---------0-----|-------0---|
|---0-----2---|-----2-----0---|---0-----0-|
|-------------|---------------|-----------|
|-3---3-------|--3----3-------|-3---3-----|


  Em9                       D7/F#
  E E S S E   E E S S S S   E E S S E
|-----------|-------------|------------|
|---3-------|---3---------|---1--------|
|-------0---|-------0---0h|=2-----2----|
|---4-----4-|---4-----4---|---0-----0--|
|-----------|-------------|------------|
|-0---0-----|-0---0-------|-2---2------|


  G       C/G         G
  E E S S S S    E  E S S S S    E  E S S E
|-------------|---------------|-------------|
|---0-------1-|-(1)-1-------0-|-(0)-0-------|
|-------0-----|---------0-----|---------0---|
|---0-----2---|-----2-----0---|-----0-----0-|
|-------------|---------------|-------------|
|-3---3-------|--3----3-------|--3----3-----|


  Em                      C/G G
  E E S S E   E E S S E   E E S S S S
|-----------|-----------|--------------|
|---0-------|---0-------|---1-------0--|
|-------0---|-------0---|-------0------|
|---2-----0-|---2-----0-|---2-----0----|
|-----------|-----------|--------------|
|-0---0-----|-0---0-----|-3---3--------|


                             1.                              2.
   E  E S S E   E E S S S S    E  E S S S S    E  E S S E     E E S S E
|-------------|-------------|---------------|--------------||-----------||
|-(0)-0-------|-----------0-|-(0)---------0-|-(0)---------o||-0---------||
|---------0---|-------0-----|---------0-----|---------0----||-------0---||
|-----0-----0-|---0-----0---|-----0-----0---|-----0-----0--||---0-----0-||
|-------------|-------------|---------------|-------------o||-----------||
|--3----3-----|-3---3-------|--3----3-------|--3----3------||-3---3-----||


 Harmonica Solo
  Em9                       D7/F#       G
  E E S S E   E E S S S S   E E S S E   E E S S E   E E S S E   E E S S E
|-----------|-------------|-----------|-----------|-----------|-----------|
|---3-------|---3---------|---1-------|-----------|-----------|---0-------|
|-------0---|-------0---0h|=2-----2---|-------0---|-------0---|-------0---|
|---4-----4-|---4-----4---|---0-----0-|---0-----0-|---0-----0-|---0-----0-|
|-----------|-------------|-----------|-----------|-----------|-----------|
|-0---0-----|-0---0-------|-2---2-----|-3---3-----|-3---3-----|-3---3-----|


  Em9                       D7/F#
  E E S S E   E E S S S S   E E S S S S
|-----------|-------------|-------------|
|---3-------|---3---------|---1-------1p|
|-------0---|-------0---0h|=2-----2-----|
|---4-----4-|---4-----4---|---0-----0---|
|-----------|-------------|-------------|
|-0---0-----|-0---0-------|-2---2-------|


  G                         Em
  E E S S E   E E S S S S    E  E S S E
|-----------|-------------|--------------|
|-0-0-------|---0-------0-|-(0)-0--------|
|-------0---|-------0-----|---------0----|
|---0-----0-|---0-----0---|-----2-----0--|
|-----------|-------------|--------------|
|-3---3-----|-3---3-------|--0----0------|


                D7/F#       G                       Em9
  E E S S S S   E E S S E   E E S S E   E E S S E   E E S S E   E E S S S S
|-------------|-----------|-----------|-----------|-----------|----------------|
|---0-------0h|=1-1-------|---0-------|-----------|---3-------|---3------------|
|-------0-----|-------2---|-------0---|-------0---|-------0---|-------0---0h===|
|---2-----0---|---0-----0-|---0-----0-|---0-----0-|---4-----4-|---4-----4------|
|-------------|-----------|-----------|-----------|-----------|----------------|
|-0---0-------|-2---2-----|-3---3-----|-3---3-----|-0---0-----|-0---0----------|


                                                  D.S. al Coda
  D7/F#       G           C/G           G
  E E S S E   E E S S E   E E S S S S   E E S S E   E E S S E
|-----------|-----------|-------------|-----------|------------||
|---1-------|---0-------|---1-------1p|=0-0-------|------------||
|-2-----2---|-------0---|-------0-----|-------0---|-------0----||
|---0-----0-|---0-----2-|---2-----2---|---0-----0-|---0-----0--||
|-----------|-----------|-------------|-----------|------------||
|-2---2-----|-3---3-----|-3---3-------|-3---3-----|-3---3------||


 Outro
  &
  Em9
  E E S S E   E E S S E   E E S S E   E E S S E   E E S S E   E E S S E
|-----------|-----------|-----------|-----------|-----------|-----------|
|---3-------|---3-------|---3-------|---3-------|---3-------|---3-------|
|-------0---|-------0---|-------0---|-------0---|-------0---|-------0---|
|---4-----4-|---4-----4-|---4-----4-|---4-----4-|---4-----4-|---4-----4-|
|-----------|-----------|-----------|-----------|-----------|-----------|
|-0---0-----|-0---0-----|-0---0-----|-0---0-----|-0---0-----|-0---0-----|


            D7/F#
  E E S S S S    E  E S S E   E E S S E   E E S S E   E E S S S S
|-------------|-------------|-----------|-----------|-------------|
|---3-------1-|-(1)-1-------|---1-------|---1-------|---1-------0-|
|-------0-----|---------2---|-------2---|-------2---|-------2-----|
|---4-----4---|-----0-----0-|---0-----0-|---0-----0-|---0-----0---|
|-------------|-------------|-----------|-----------|-------------|
|-0---0-------|--2----2-----|-2---2-----|-2---2-----|-2---2-------|


  H.=H
  G   C/G
  E E S S S S    E  E S S E   H      +H
|-------------|-------------|------|--------*|
|---0-------1-|-(1)-1-------|------|--------*|
|-------0-----|---------0---|------|--------*|
|---0-----2---|-----2-----2-|------|--------*|
|-------------|-------------|------|--------*|
|-3---3-------|--3----3-----|-3----|-(3)----*|            
Submit corrections


        Girl From The North Country lessons Hard to play? Try these video lessons and learn fast Girl From The North Country lessons
        
↑ Back to top | Tablatures and chords for acoustic guitar and electric guitar, ukulele, drums are parodies/interpretations of the original songs. You may use it for private study, scholarship, research or language learning purposes only