» » »

Bob Dylan - Dont Think Twice Its All Right Tabs

Artists:  A B C D E F G H I J K L M N O P Q R S T U V W X Y Z # 

Dont Think Twice Its All Right Tabs

(ver. 3) Click to play this song!
Bob Dylan
 Rating:
4.4/5 (20 votes)

 Dont Think Twice Its All Right  lessons Tabs too difficult? Try these video lessons and learn fast
 
                  Intro & Harmonica Interlude
    Q=185
    C                G7                Am                F
   4/4
    Gtr I (Ac. Gtr. w/ capo 4th fret)
    H     E E +Q     E E E E e E E E   +H      E E E E   E E E E +Q   E E
||-----------------|-------0h1-------|-----------------|------------------|
||o----------------|---------------1-|-(1)-----------1-|-------1-(1)------|
||----------0-(0)--|---0-------0-----|-----------2-----|---2------------2-|
||-----2-------2---|-----0-------0---|------2------2---|-----3--------3---|
||o-3--------------|-----------------|--0--------------|------------------|
||--------3--------|-3-------3-------|---------3-------|-1--------0h1-----|
    Q  Q  Q    Q     H       Q   Q      Q   Q  H         H        E E Q


  C                 G7                C
  E E E E E E E E   E E E E e E E E   +Q   E E +Q   Q    Q  E E +Q   Q
|-----------------|-------0h1-------|------------------|----------------||
|-------1-------1-|---------------1-|-(1)----1-(1)-----|-1----1-(1)-----||
|---0-------0-----|---0-------0-----|------------------|----------------||
|-----2-------2---|-----0-------0---|------2--------2--|----2--------2--||
|-----------------|-----------------|-----------3------|---------3------||
|-3-------3-------|-3-------3-------|--3---------------|-3--------------||
                    H       Q   Q      Q   Q    Q   Q    Q  Q    Q   Q


 1st, 2nd, 3rd & 4th Verse
  C                G7                Am
  H     E E +Q     E E E E e E E E   +H      E E E E   E E E E E E +Q
|----------------|-------0h1-------|-----------------|------------------|
|----------------|---------------1-|-(1)-----------1-|-------1----------|
|---------0-(0)--|---0-------0-----|-----------2-----|---2-------2-(2)--|
|----2-------2---|-----0-------0---|------2------2---|-----2--------2---|
|-3--------------|-----------------|--0------0-------|-0----------------|
|-------3--------|-3-------3-------|-----------------|---------3--------|
  Q  Q  Q    Q     H       Q   Q      Q   Q  H         H       Q    Q


  F                                   C
  E E E E E E E E   E E E E E E E E   +Q   Q  E E E E
|-----------------|-----------------|-----------------|
|-------1-------1-|-----------1-----|------1--------1-|
|---2-------2-----|---2---0h2-----0-|-(0)-------0-----|
|-----3-------3---|-----3-------3---|------2------2---|
|-----------------|-----------------|-----------------|
|-1-------1-------|-1-------1-------|--3------3-------|
                    H       Q   Q      Q   Q  H


  G7                C
  E E E E e E E E   +H      E E +Q
|-------0h1-------|------------------|
|---------------1-|-(1)--------------|
|---0-------0-----|-----------0-(0)--|
|-----0-------0---|------2-------2---|
|-----------------|------------------|
|-3-------3-------|--3------3--------|
  H       Q   Q      Q   Q  Q    Q


  G7                Am                                   D7
  E E E E e E E E   +H      E E E E   E E E E E E +Q     E E E E E E E E
|-------0h1-------|-----------------|------------------|-----------------|
|---------------1-|-(1)-----------1-|-------1----------|-------1-------1-|
|---0-------0-----|-----------2-----|---2-------2-(2)--|---2-------2-----|
|-----0-------0---|------2------2---|-----2--------2---|-----0-------0---|
|-----------------|--0------0-------|-0----------------|-----------------|
|-3-------3-------|-----------------|---------3--------|-2-------2-------|
  H       Q   Q      Q   Q  H         H       Q    Q


                    G                                      C
  E E E E E E E E   E E +Q   E E Q     E E +Q   E E +Q     H     E E E E
|-----------------|------------------|-------------------|---------------|
|-------1---------|---0-(0)----0-----|---0-(0)-----------|-------------1-|
|---2-------2---0-|------------------|------------0-(0)--|---------0-----|
|-----0-------0---|------0h2-----2h3-|------3--------0---|----2------2---|
|-----------------|------------------|-------------------|-3-------------|
|-2-------2-------|-3--------3-------|-3--------3--------|-------3-------|
                    Q    E E Q   E E   Q    Q   Q    Q     Q  Q  H


                  C7                                 F
  H     E E E E   +H      E E E E   E E E E E E Q    E E E E E E E E
|---------------|-----------------|----------------|-----------------|
|-------------1-|-(1)-----------1-|-------1--------|-------1-------1-|
|---------0-----|-----------3-----|---3-------3----|---2-------2-----|
|----2------2---|------2------2---|-----2-------2--|-----3-------3---|
|-3-------------|--3------3-------|-3-------3------|-----------------|
|-------3-------|-----------------|----------------|-1-------1-------|
  Q  Q  H          Q   Q  H


                     D7                                  C
  E E E E E E +Q     E E E E E E E E   E E E E e E E E   E E E E E E E E
|------------------|---------------0-|-------0h2-------|-----------------|
|-------1----------|-------1---------|---------------1-|-------1-------1-|
|---2-------2-(2)--|---2-------2-----|---2-------0-----|---0-------0-----|
|-----3--------3---|-----0-------0---|-----0-------0---|-----2-------2---|
|------------------|-----------------|-----------------|-----------------|
|-1-------1--------|-2-------2-------|-2-------2-------|-3-------3-------|
  H       Q    Q                       H       Q   Q


  G                 Am                F                C
  E E E E E E E E   E E E E E E E E   E E E E E E Q    E E E E E E E E
|-----------------|-----------------|----------------|-----------------|
|-------0-------0-|-------1-------1-|-------1--------|-------1-------1-|
|---0-------0-----|---2-------2-----|---2-------2----|---0-------0-----|
|-----0-------0---|-----2-------2---|-----3-------3--|-----2-------2---|
|-----------------|-0---------------|----------------|-----------------|
|-3-------3-------|---------3-------|-1-------1------|-3-------3-------|


                                     1.,2.,3.,4.         5.
  G                   C                                   C
  E E +Q   E E +Q     H     E E E E   +H      E E E E  5x Q  Q  H
|-------------------|---------------|------------------||-0----------*|
|-------------------|-------------1-|-(1)-----------1-o||-1----------*|
|---0-(0)----0-(0)--|---------0-----|-----------3------||-0----------*|
|------0h2------3---|----2------2---|------2------2----||-2----------*|
|-------------------|-3-------------|--3------3-------o||-3----------*|
|-3--------3--------|-------3-------|------------------||------------*|
  Q    E E Q    Q     Q  Q  H          Q   Q  H           W
            
Submit corrections


        Dont Think Twice Its All Right  lessons Hard to play? Try these video lessons and learn fast Dont Think Twice Its All Right  lessons
        
↑ Back to top | Tablatures and chords for acoustic guitar and electric guitar, ukulele, drums are parodies/interpretations of the original songs. You may use it for private study, scholarship, research or language learning purposes only