» » »

Bob Dylan - Blowin In The Wind Tabs

Artists:  A B C D E F G H I J K L M N O P Q R S T U V W X Y Z # 

Blowin In The Wind Tabs

(ver. 3) Click to play this song!
Bob Dylan
 Rating:
2.7/5 (26 votes)

 Blowin In The Wind lessons Tabs too difficult? Try these video lessons and learn fast
 
                INTRO:

   G                G                G                C                
E|----------------|----------------|----------------|----------------|
B|----------------|-----------0----|-----------0----|h1--------------|
G|-------0---0----|-------0--------|-------0h2-----0|-------0--------|
D|-----0-------0--|-----0-------0--|-----0-------0--|h2---2-------0--|
A|----------------|----------------|----------------|-3-------2------|
E|-3-------X------|-2h3-----3------|-3-------3------|----------------|


   D/A              G/B              C/G              C               
E|----------------|----------------|----------------|----------------|
B|-----------3----|----------------|-----------1----|----------------|
G|-------2-------0|-------0--------|-------0--------|-------0--------|
D|-----0-------0--|-----0-----0----|-----2-------0--|-----2-------0--|
A|-0-------3------|-2-------2---0--|----------------|-3-------2------|
E|----------------|----------------|-3-------X------|----------------|


   D/A              D/A              G                G               
E|----------------|----------------|----------------|----------------|
B|-----------3----|----------------|----------------|----------------|
G|-------2-------0|-------2--------|-------0-------0|-------0--------|
D|-----0-------0--|-----0----------|-----2-------2--|-----2-------0--|
A|-0-------3------|-0--------------|---------0h2----|---------0h2----|
E|----------------|---------0---2--|-3--------------|-3--------------|

                                   [ <- Album version starts here.]
 

VERSE 1:


   G                C                D/A              G
E|----------------|----------------|----------------|----------------|
B|-----------0----|----------------|-----------3----|-----------0----|
G|-------0-------0|-------0---0----|-------2--------|-------0h2-----0|
D|-----0-------0--|-----0-------0--|-----0-------0--|-----0-------0--|
A|----------------|-3-------2------|-0-------0------|----------------|
E|-3-------3------|----------------|----------------|-3-------3------|
    
   How   many       roads   must     man    walk      down
                                a

   G                C                G                G  
E|----------------|----------------|----------------|----------------|
B|-----------0----|----------------|----------------|----------------|
G|-------0-------0|-------0--------|---------------0|-------0--------|
D|-----0-------0--|-----0-------0--|-----0-------0--|-----0-------0--|
A|----------------|-3-------2------|----------------|---------0h2----|
E|-3-------3------|----------------|-3-------0h3----|-0h3------------|

 before  you        call    him a    man?


   G                C                D/A              G
E|----------------|----------------|----------------|----------------|
B|-----------0----|----------------|-----------3----|----------------|
G|-------0--------|-------0--------|-------2-------0|---------------0|
D|-----0-------0--|-----0-------0--|-----0-------0--|-----0-------0--|
A|----------------|-3-------2------|-0-------0------|---------0h2----|
E|-3-------X------|----------------|----------------|-3--------------|

   How   many       seas    must     white dove       sail
                                a


   G                C                D/A              D/F#      
E|----------------|----------------|----------------|----------------|
B|-----------0----|----------------|-----------3----|-----------3----|
G|-------0--------|-------0--------|-------2-------2|-------2-------0|
D|-----0-------0--|-----0-------0--|-----0-------0--|-----4-------4--|
A|----------------|-3-------2------|-0-------0------|---------0------|
E|-3-------3------|----------------|----------------|-2--------------|

 before        she  sleeps  in  the  sand                         Yes 'n
   

   G                C                D/A              G
E|----------------|----------------|----------------|----------------|
B|-----------0----|----------------|----------------|----------------|
G|-------0-------0|-------0---0----|-------2--------|-------0--------|
D|-----0-------0--|-----0-------0--|-----0----------|-----0-------0--|
A|----------------|-3-------2------|-0--------------|---------0h2----|
E|-3-------3------|----------------|---------0---2--|-3--------------|
    
   How   many       times   must     can non ball     fly
                                a

   G                C                G                G       
E|----------------|----------------|----------------|----------------|
B|-----------0----|----------------|----------------|-----------0----|
G|-------0-------0|-------0--------|--------0-------|-------0h2------|
D|-----0-------0--|-----0-------0--|-----0-------0--|-----0-------0--|
A|----------------|-3-------2------|---------0h2----|----------------|
E|-3-------3------|----------------|-3--------------|-3-------3------|

 before             they're          banned?                      The
                        for-e---ver
 


CHORUS:

 
   C                D/A              G/B              C/G      
E|----------------|----------------|----------------|----------------|
B|----------------|-----------3----|----------------|-----------1----|
G|-------0---0----|-------2--------|-------0---0----|-------0--------|
D|-----0-------0--|-----0-------0--|-----0----------|-----2-------2--|
A|-3-------2------|-0-------0------|-2-------2---0--|----------------|
E|----------------|----------------|----------------|-3-------3------|

   Answ----er  my  friend       is   blowing in  the  wind        The


   C                D/A              G                C      
E|----------------|----------------|----------------|----------------|
B|----------------|----------------|----------------|----------------|
G|-------0--------|-------2--------|-------0--------|-------0---0----|
D|-----0-------0--|-----0----------|-----0-------0--|-----0-------0--|
A|-3-------2------|-0--------------|---------0h2----|-3-------2------|
E|----------------|---------0---2--|-3--------------|----------------|

   Answ----er  is   blowing in  the  wind           [---HARMONICA---
 

   D/A              G/B              C/G              C
E|----------------|----------------|----------------|----------------|
B|-----------3----|----------------|-----------1----|-----------0----|
G|-------2--------|-------0---0----|-------0--------|-------0--------|
D|-----0-------0--|-----0----------|-----2-------2--|-----0-------0--|
A|-0-------0------|-2-------2---0--|----------------|-3-------2------|
E|----------------|----------------|-3-------3------|----------------|

  -----------------------------HARMONICA-----------------------------


   D/A              G      
E|----------------|----------------|----------------|
B|----------------|----------------|----------------|
G|-------2--------|-------0-------0|-------0--------|
D|-----0----------|-----0-------0--|-----0-------0--|
A|-0--------------|---------0h2----|---------0h2----|
E|---------0---2--|-3--------------|-3--------------|

  ------------HARMONICA------------]          Yes n...




[Back to the start of the verse if you're playing along with the album. 
Continue to bridge 1 if you're playing my extended version.]




BRIDGE 1:


   G                Gsus2            G6               G6       
E|----------------|----------------|----------------|----------------|
B|-----------0----|-3---------3----|----------------|-------3--------|
G|-------0h2------|-------2--------|-----------0----|-2---------2----|
D|-----0-------0--|-----0-------0--|-----0-0h2---2--|-----0-------0--|
A|----------------|----------------|----------------|----------------|
E|-3-------3------|-3-------3------|-3-------3------|-3-------3------|
   

   G6               G6               G6               G
E|----------------|----------------|----------------|----------------|
B|----------------|----------------|----------------|----------------|
G|-----------0----|-2-----0--------|-----------0----|-----------0----|
D|-----0-0h2---2--|-----0-----0-0--|-2---2-2-----2--|-----0-0-----0--|
A|----------------|----------------|----------------|----------------|
E|-3-------3------|-3-------3------|-3-------3------|-3-------3------|


   C                C/G              D/A              D/A
E|----------------|----------------|----------------|----------------|
B|-----------1----|-----------1----|-----------3----|-------3--------|
G|-------0--------|-------0--------|-------2--------|-----------2----|
D|-----2-------2--|-----0-------0--|-----0-------0--|-----0-------0--|
A|-3-------3------|----------------|-0-------0------|-0-------0------|
E|----------------|-3-------X------|----------------|----------------|


    G               G                G                G          
E|----------------|-3--------------|----------------|----------------|
B|-------3--------|-------0--------|-----------0----|----------------|
G|-----------0----|-----------0---0|-------0--------|-------0--------|
D|-----0-------0--|-----0-------0--|-----0-------0--|-----0-------0--|
A|----------------|----------------|----------------|---------0h2----|
E|-3-------3------|-3-------3------|-2h3-----3------|-0h3------------|



VERSE 2 [same chords and picking pattern as verse 1]



CHORUS
 


BRIDGE 2:


   G                G                G                G
E|----------------|-3--------------|----------------|-3--------------|
B|-----------3----|-------3--------|-----------3----|-------3--------|
G|-------0--------|-----------0----|-------0--------|-----------0----|
D|-----0-------0--|-----0-------0--|-----0-------0--|-----0-------0--|
A|----------------|----------------|----------------|----------------|
E|-2h3-----3------|-3-------3------|-2h3-----3------|-3-------3------|


   C/G              C/G              D/A              D/A
E|----------------|-0--------------|----------------|-2--------------|
B|-----------1----|-------1--------|-----------3----|-------3--------|
G|-------0--------|-----------0----|-------2--------|-----------2----|
D|-----2-------2--|-----0-------0--|-----0-------0--|-----0-------0--|
A|-3--------------|---------3------|-0-------0------|-0-------0------|
E|---------3------|-3--------------|----------------|----------------|

  
    G               G                G                G          
E|----------------|-3--------------|----------------|-3--------------|
B|-------3--------|-------3--------|-----------3----|-----------3----|
G|-----------0----|-----------0---0|-------0--------|-------0--------|
D|-----0-------0--|-----0-------0--|-----0-------0--|-----0-------0--|
A|----------------|----------------|----------------|----------------|
E|-3-------3------|-3-------3------|-2h3-----3------|-3-------X------|


 
VERSE 3 [same chords and picking pattern as verse 1]



CHORUS



BRIDGE 3 [instrumental version of verse and chorus]:


   G                C                D/A              G
E|----------------|-0--------------|----------------|----------------|
B|-3---------0----|-------1--------|-3---------3----|-------0--------|
G|-------0--------|-----------0----|-------2-------2|-0---------0----|
D|-----0-------0--|-----0-------0--|-----0-------0--|-----0-------0--|
A|----------------|-3-------2------|-0-------0------|----------------|
E|-3-------3------|----------------|----------------|-3-------3------|
  

   G                C                G                    
E|----------------|----------------|----------------|----------------|
B|-3---------0----|-1-------0------|-------3--------|----------------|
G|-------0--------|----------------|-----------0----|-------0--------|
D|-----0-------0--|-----0-------0--|-----0-------0--|-----0-------0--|
A|----------------|-3-------2------|----------------|---------0h2----|
E|-3-------3------|----------------|-3-------3------|-0h3------------|


   G                C                D/A              G
E|----------------|-0--------------|----------------|----------------|
B|-3---------0----|-------1--------|-3---------3----|-----------0----|
G|-------0--------|-----------0----|-------2-------2|-------0h2------|
D|-----0-------0--|-----0-------0--|-----0-------0--|-----0-------0--|
A|----------------|-3-------2------|-0-------0------|----------------|
E|-3-------3------|----------------|----------------|-3-------3------|
  
 
   G                C                D/A              D/F#      
E|----------------|----------------|----------------|----------------|
B|-3---------0----|-1---------0----|-----------3----|-----------3----|
G|-------0--------|-------0--------|-------2--------|-------2--------|
D|-----0-------0--|-----0-------0--|-----0-------0--|-----4-------0--|
A|----------------|-3-------2------|-0-------0------|---------0------|
E|-3-------3------|----------------|----------------|-2--------------|


   G                C/G              D/A              G
E|----------------|-0--------------|----------------|----------------|
B|-3---------0----|-------1--------|-3--------------|----------------|
G|-------0--------|-----------0----|-------2--------|-------0-----0--|
D|-----0-------0--|-----2-------2--|-----0----------|-----0---0h2----|
A|----------------|---------3------|-0--------------|----------------|
E|-3-------3------|-3--------------|---------0---2--|-3--------------|
  

   G                C                G                G    
E|----------------|----------------|----------------|----------------|
B|-3---------0----|-1-------0------|-------3--------|-----------0----|
G|-------0--------|----------------|-----------0----|-------0h2------|
D|-----0-------0--|-----0-------0--|-----0-------0--|-----0-------0--|
A|----------------|-3-------2------|----------------|----------------|
E|-3-------3------|----------------|-3-------X------|-3-------3------|

 
   C                D/A              G/B              C/G      
E|----------------|----------------|----------------|----------------|
B|----------------|-----------3----|----------------|-----------1----|
G|--------0-------|-------2--------|-------0--------|-------0--------|
D|-----0-------0--|-----0-------0--|-----0----------|-----2-------2--|
A|-3-------2------|-0-------0------|-2-------2---0--|----------------|
E|----------------|----------------|----------------|-3-------3------|


   C                D/A              D/A              G      
E|----------------|----------------|----------------|----------------|
B|----------------|-----------3----|----------------|-----------3----|
G|-------0--------|-------2--------|-------2--------|-------0--------|
D|-----0-------0--|-----0-------0--|-----0----------|-----0-------0--|
A|-3-------2------|-0-------0------|-0--------------|----------------|
E|----------------|----------------|---------0---2--|-3-------X------|
     

   C                D/A              G                G      
E|----------------|----------------|----------------|----------------|
B|-----------0----|----------------|-----------3----|----------------|
G|-------0--------|-------2--------|-------0--------|-------0--------|
D|-----0-------0--|-----0----------|-----0----------|-----0-------0--|
A|-3-------2------|-0--------------|-------------0--|---------0h2----|
E|----------------|---------0---2--|-3-------X------|-0h3------------|



Repeat VERSE 1 and CHORUS



Outro:


   C/G              D/A              D/A              G
E|----------------|----------------|----------------|----------------|
B|----------------|-----------3----|----------------|----------------|
G|-------0--------|-------2--------|-------2--------|-------0---0----|
D|-----2-------0--|-----0-------0--|-----0----------|-----0-------0--|
A|-3-------2------|-0-------X------|-0--------------|----------------|
E|----------------|----------------|---------0---2--|-3-------X------|


   D                                 G
E|----------------|----------------|----------------|
B|-----3----------|----------------|----------------|
G|h2-------2------|----------------|p0--------------|
D|-------------0--|----------------|----------------|
A|----------------|----------------|----------------|
E|----------------|----------------|----------------|





 
LYRICS AND CHORDS (album version):



G  G  G        C     /b     D/a      G
      How many roads must a man walk down,

  G        C    G/b   G    G
before you call him a man?

G        C    /b     D/a        G
How many seas must a white dove sail,

  G        C      /b     D/a   D/f#
before she sleeps in the sand?

       G        C     /b     D/a    e f# G
Yes 'n how many times must a cannon ball fly,


  G    C           /b   G        G
before they're for-ever banned?



    C  /b     D/a       G/b        a   C/g
The answer my friend is blowing in the wind,


    C C/b     D/a     e  f#  G     C /b
The answer is blowing in the wind.


D/a    G/b a   C/g    C /b


D/a    G      G
            
Submit corrections


        Blowin In The Wind lessons Hard to play? Try these video lessons and learn fast Blowin In The Wind lessons
        
↑ Back to top | Tablatures and chords for acoustic guitar and electric guitar, ukulele, drums are parodies/interpretations of the original songs. You may use it for private study, scholarship, research or language learning purposes only