Home » B » Bobaflex »

Bobaflex - Better Than Me Tabs

Artists:  A B C D E F G H I J K L M N O P Q R S T U V W X Y Z # 

Better Than Me Tabs

(ver. 1) Click to play this song!
Bobaflex


----------------------------------------------------------------------------
                             Better Than Me- Bobaflex
-------------------------------------------------------------------------------

Tuning:Drop D

e|---------------------------------------------------------------------------| INTRO--| X2
B|------------------------------------------------------------------------------------|
G|------------------------------------------------------------------------------------|
D|-----5x---0x--3x--0x--3x---0x------3x----0x-3x--0x--3x---0x-------------------------|
A|-----5x---0x--3x--0x--3x---0x------3x----0x-3x--0x--3x---0x-------------------------|
D|-----5x---0x--3x--0x--3x--0x-------3x---0x--3x--0x--3x--0x--------------------------|

e|---------------------------------------------------| X4
B|---------------------------------------------------|
G|---------------------------------------------------|
D|----5---0--3--0--3---0--------3---0--3--0--3---0---|
A|----5---0--3--0--3---0--------3---0--3--0---3---0--|
D|---5--- 0--3--0--3--0---------3---0--3--0---3--0---|
           I dont care...................................Live tha way i wanna
e|----------------------------              ----------------|
B|----------------------------              ----------------|
G|--------------------------             -------------------|
D|---0---------------5+----          --3----0--3--0--3---0--|
A|---0---------------------  X3    ---3----0--3--0--3---0---|
D|---0----5+ 5+5+------           ---3----0--3--0--3--0-----|

Here we go around and........ You think your better than me!
e|------------------------------------------------------------|
B|------------------------------------------------------------|
G|------------------------------------------------------------|
D|----7---5----0------5---3---0----------3----0--3--0--3---0--|
A|----7---5----0------5---3---0----------3----0--3--0--3---0--|
D|---7----5---0-------5---3---0---------3----0--3--0--3--0----|

    YOU THINK YOUR BETTER THAN ME!
e|-------------------------------------------------------------|
B|-------------------------------------------------------------|
G|-------------------------------------------------------------|
D|-----5x---0x--3x--0x--3x---0x------3x----0x-3x--0x--3x---0x--|
A|-----5x---0x--3x--0x--3x---0x------3x----0x-3x--0x--3x---0x--|
D|-----5x---0x--3x--0x--3x--0x-------3x---0x--3x--0x--3x--0x---|

| /  slide up
| \  slide down
| h  hammer-on
| p  pull-off
| ~  vibrato
| +  harmonic
| x  Mute note
===============================================================================
            
Submit corrections

↑ Back to top | Tablatures and chords for acoustic guitar and electric guitar, ukulele, drums are parodies/interpretations of the original songs. You may use it for private study, scholarship, research or language learning purposes only