» » »

Boards Of Canada - Beware The Friendly Stranger Tabs

Artists:  A B C D E F G H I J K L M N O P Q R S T U V W X Y Z # 

Beware The Friendly Stranger Tabs

(ver. 1) Click to play this song!
Boards Of Canada
 Rating:
4.3/5 (28 votes)

 Beware The Friendly Stranger lessons Tabs too difficult? Try these video lessons and learn fast
 
                e|--6--------------4------|---------------------|-----------------------|-4----------------------|
B|-------4--6----------4--|-6-------------------|-6---4--------------4--|-----4--6---2---4--2p1--|
G|-----5-------5--5---5-5-|-----6--8------6--5--|----5---5-6----5-6---5-|----3------3---3------3-|
D|------------------------|----8------8--8----8-|-----------------------|------------------------|
A|------------------------|---------------------|-----------------------|------------------------|
E|------------------------|---------------------|-----------------------|------------------------|

e|--6--------------4------|------------------------|-6--------------------|----------------------|
B|-------4--6----------4--|-6---------9------------|-----4--6------4------|-4---2---1-------1-2-4|
G|-----5-------5--5---5-5-|-----6---8----8--10-----|--------------6---6-5-|----3---3---3p1-3---3-|
D|------------------------|----8---8-8----------11-|----4--------4--------|---------------3------|
A|------------------------|------------------------|----------------------|----------------------|
E|------------------------|------------------------|----------------------|----------------------|

e|--6-------------4--------|--1------------------|------------------------|
B|------4--6---------4---4-|------1---2-1--2---4-|--6-------------9-------| to
G|-----5------5--5------6--|-3---3---3-3------3--|-5---5h6--5h8--5--------|  fade
D|-------------------------|---------------------|------------------------|   out...
A|-------------------------|---------------------|------------------------|
E|-------------------------|---------------------|------------------------|


            
Submit corrections


        Beware The Friendly Stranger lessons Hard to play? Try these video lessons and learn fast Beware The Friendly Stranger lessons
        
↑ Back to top | Tablatures and chords for acoustic guitar and electric guitar, ukulele, drums are parodies/interpretations of the original songs. You may use it for private study, scholarship, research or language learning purposes only