» » »

Blur - A Song Tabs

Artists:  A B C D E F G H I J K L M N O P Q R S T U V W X Y Z # 

A Song Tabs

(ver. 2) Click to play this song!
Blur
 Rating:
4/5 (4 votes)

 A Song lessons Tabs too difficult? Try these video lessons and learn fast
 
                "(2)
Blur-Song 2

Dropped D

Intro and Verse
e|----------------------------------------------|
B|----------------------------------------------|
G|---------------------8--8--10-12---12--12--12-|
D|-10-10-x-x-8-8-8-x-x-6--6--8--10---10--10--10-|
A|-8--8--x-x-6-6-6-x-x--------------------------|
D|----------------------------------------------|

e|----------------------------------------------|
B|----------------------------------------------|
G|---------------------8--8--10-12---12--12--12-|
D|-10-10-x-x-8-8-8-x-x-6--6--8--10---10--10--10-|
A|-8--8--x-x-6-6-6-x-x--------------------------|
D|----------------------------------------------|
                               

Chorus:
e|----------------------------------|
B|----------------------------------|
G|----------------------------------|
D|-3-3-3-3--1-1-1-1--6-6--8---8-8-8-|
A|-3-3-3-3--1-1-1-1--6-6--8---8-8-8-|
D|-3-3-3-3--1-1-1-1--6-6--8---8-8-8-|
  “woohoo! Woohoo! Woohoo!”
  “woohoo! When I feel heavy metal…”

e|--------------------------------------------------------------|
B|--------------------------------------------------------------|
G|--------------------------------------------------------------|
D|-3-3-3-3-3-3-3-3--6-6-6-6-6-6-6-6--11-11-11-11-11-11-11-11-11-|
A|-3-3-3-3-3-3-3-3--6-6-6-6-6-6-6-6--11-11-11-11-11-11-11-11-11-|
D|-3-3-3-3-3-3-3-3--6-6-6-6-6-6-6-6--11-11-11-11-11-11-11-11-11-|
  “al those times……………………………………………………………………………………………pleased to meet ya”

e|----------------------------------|
B|----------------------------------|
G|----------------------------------|
D|----------------------------------|
A|------------6-6--8--11---11-11-11-|
D|-3h6p3h6p3--6-6--8--11---11-11-11-|
                             “yeah yeah!”
"            
Submit corrections


        A Song lessons Hard to play? Try these video lessons and learn fast A Song lessons
        
↑ Back to top | Tablatures and chords for acoustic guitar and electric guitar, ukulele, drums are parodies/interpretations of the original songs. You may use it for private study, scholarship, research or language learning purposes only