Home » B » Blue October »

Blue October - The End Tabs

Artists:  A B C D E F G H I J K L M N O P Q R S T U V W X Y Z # 

The End Tabs

(ver. 3) Click to play this song!
Blue October
----------------------------------------------------------------------------
----------------------------------------------------------------------------


Tuning: standard

=====================================================================


Intro/verse (guitar part)

e|--------------------------------------------|
B|--------------------------------------------|
G|--------------------------------------------|
D|------3--2~------------------0-2----2-------|
A|---0-----------------------------3----------|
E|---------------------------------------1----| 


=====================================================================



Pre-Chorus

e|-------------------------|
B|-------------------------|
G|-------------------------|
D|-------------------------|
A|-------11-10-------------|
E|-----8------6-----8------|


=====================================================================



Chorus
                                                     VVV eleven's VVV 
e|----------------------------------------------------------------------|
B|----------------------------------------------------------------------|
G|----------------------------------------------------------------------|
D|---3-3-3-3-3-3-3-3-6-6-6-6-6-6-6-6-8-8-8-8-8-8-8-8-1111111111111111---|
A|---3-3-3-3-3-3-3-3-6-6-6-6-6-6-6-6-8-8-8-8-8-8-8-8-1111111111111111---|
E|---1-1-1-1-1-1-1-1-4-4-4-4-4-4-4-4-6-6-6-6-6-6-6-6-9-9-9-9-9-9-9-9----|

                                           VVVVV also eleven's VVVVV
e|----------------------------------------------------------------------|
B|----------------------------------------------------------------------|
G|----------------------------------------------------------------------|
D|---3-3-3-3-3-3-3-3-6-6-6-6-6-6-6-6-8-8-8/11111111111111111111111111---|
A|---3-3-3-3-3-3-3-3-6-6-6-6-6-6-6-6-8-8-8/11111111111111111111111111---|
E|---1-1-1-1-1-1-1-1-4-4-4-4-4-4-4-4-6-6-6/9-9-9-9-9-9-9-9-9-9-9-9-9----|


=====================================================================


verse x2
Pre-Chorus x2
Chorus x2
verse x2
Pre-Chorus x2
Chorus x2
verse x2
Pre-Chorus x2
Chorus x4
            
Submit corrections

↑ Back to top | Tablatures and chords for acoustic guitar and electric guitar, ukulele, drums are parodies/interpretations of the original songs. You may use it for private study, scholarship, research or language learning purposes only