» » »

Bloodsoaked - Obsessed With Hate Tabs

Artists:  A B C D E F G H I J K L M N O P Q R S T U V W X Y Z # 

Obsessed With Hate Tabs

(ver. 1) Click to play this song!
Bloodsoaked
 Rating:
4/5 (4 votes)
    Obsessed With Hate lessons Tabs too difficult? Try these video lessons and learn fast
                	     SONG NAME: Obsessed With Hate - Band Name: Bloodsoaked




Tuning: D-G-C-F-A-D

(Intro Riff)
D|------------------------------------------|
A|------------------------------------------|
F|------------------------------------------|
C|------------------------------------------|
G|-3-4-3-4----3-4-3-4----3-4-3-4----3-4-3-4-|
D|-1-2-1-2----1-2-1-2----1-2-1-2----1-2-1-2-|


(First Riff played 6 times)
D|---------------------------------------------|
A|---------------------------------------------|
F|---------------------------------------------|
C|---------------------------------------------|
G|-3-4-3-4-3-4-3-4---3-4-33333333-4-5-44444444-|
D|-1-2-1-2-1-2-1-2---1-2----------2-3----------|


(Second Riff Played 6 times)
D|---------------------------------------------------------------|
A|---------------------------------------------------------------|
F|---------------------------------------------------------------|
C|---------------------------------------------------------------|
G|-55555555--------33333333-4-5-11111111-------------------------|
D|---------44445555---------2-3---------222222220000000011111111-|


(Third Riff Played 4 times)
D|------------------------------------------------------------------|
A|------------------------------------------------------------------|
F|------------------------------------------------------------------|
C|------------------------------------------------------------------|
G|-11111111----------------3333333322222222-------------------------|
D|---------2222222211111111----------------333333332222222222222222-|


(Third Riff Played 4 times/continued)
D|-----------------------------------------------------------|
A|-----------------------------------------------------------|
F|-----------------------------------------------------------|
C|-----------------------------------------------------------|
G|-11111111----------------3333333322222222----------3-4-3-4-|
D|---------2222222211111111----------------33333333--1-2-1-2-|


(The 3rd and 4th times the Third Riff is played the 2nd guitar is playing this harmony riff)
D|------------------------------------------------------------------|
A|------------------------------------------------------------------|
F|------------------------------------------------------------------|
C|-33333333----------------5555555544444444-------------------------|
G|---------4444444433333333----------------555555554444444444444444-|
D|------------------------------------------------------------------|


(Harmony Riff continued)
D|-----------------------------------------------------------|
A|-----------------------------------------------------------|
F|-----------------------------------------------------------|
C|-33333333----------------5555555544444444------------------|
G|---------4444444433333333----------------55555555--3-4-3-4-|
D|---------------------------------------------------1-2-1-2-|


(Fourth Riff)
D|--------------------------|
A|--------------------------|
F|--------------------------|
C|--------------------------|
G|-3---4---3---4----3-4-3-4-|
D|-1---2---1---2----1-2-1-2-|


The song goes back into the second and then third riffs to end the song.  All the riff 
the song are here, just listen and you will get it in no time.

| /  slide up
| \  slide down
| h  hammer-on
| p  pull-off
| ~  vibrato
| +  harmonic
| x  Mute note
            
Submit corrections

↑ Back to top | Tablatures and chords for acoustic guitar and electric guitar, ukulele, drums are parodies/interpretations of the original songs. You may use it for private study, scholarship, research or language learning purposes only