Home » B » Blizzard »

Blizzard - Terran Tabs

Artists:  A B C D E F G H I J K L M N O P Q R S T U V W X Y Z # 

Terran Tabs

(ver. 1) Click to play this song!
Blizzard
 Rating:
4/5 (4 votes)
                (Intro)
Starcraft 2 Terran 04 Guitar Tabs - by Meisterglen
Main Part
e-----------3p1-----------------------------------------------------1-----------------------0--|
B-------3----------0------------------------------------1h3-------------3-------------------3--|
G---0------------------0----------------------------------------0--------------0---------------|
D------------------0--------0------------------------------------------------------------------|
A-------------------------------------------------0-----1------------------------------3-------|
E-----------3----------------------3----1h3----------------------------------------------------|

now repeat and vary the end correctly:
e-----------3p1-----------------------------------------------------1---------------------|
B------------------0------------------------------------1h3-------------3-----------------|
G----------------------0----------------------------------------0----------------------0--|
D------------------0--------0----------------------------------------------------------2--|
A-------------------------------------------------0-----1------------------------------3--|
E-----------3----------------------3----1h3-----------------------------------------------|

sometimes the ending (after the first solo) is:
e-----------3p1-----------------------------------------------------1-----------------------------|
B------------------0------------------------------------1h3-------------3-------------------------|
G----------------------0----------------------------------------0----------------------0-------0--|
D------------------0--------0----------------------------------------------------------2h3-----2--|
A-------------------------------------------------0-----1------------------------------3-------3--|
E-----------3----------------------3----1h3-------------------------------------------------------|

First solo
It is so easy and short, so you will figure it out how it works, I am sure! (distorsion+plectrum)

the other parts are also extremely easy to learn by hearing and trying, but here they are anyway:

clean finger picking:
e--------------------------------------------------------------------------------------------|
B---------------6----6---------------6-------6h8-----8-----------6----6-----------6---6--5s--|
G-----5h7-------7----7-------5h7--------7----7-------7-----5h7---7----7----5h7--------7--5s--|
D--------------------------------------------------------------------------------------------|
A--------------------------------------------------------------------------------------------|
E--------------------------------------------------------------------------------------------|

last part:
e-----5h6--5------------------------------------------5h6----5----------------------------------|
B----------------6----------6------5----------------------------------6------------6----8----8--|
G---------------------5h7--------------5-----------------------------------5h7------------------|
D---------------------------------------------3s5-----------------------------------------------|
A-----------------------------------------------------------------------------------------------|
E-----------------------------------------------------------------------------------------------|

e------5--5h6--5---------------------------------------------5--5h6----5----6---8----10---13----15|
B -8-----------------6------------6------5----------------8---------------------------------------|
G---------------------------5h7--------------5----------------------------------------------------|
D--------------------------------------------------3s5--------------------------------------------|
A-------------------------------------------------------------------------------------------------|
E-------------------------------------------------------------------------------------------------|

So that is it!  hf gl ;)
            
Submit corrections

↑ Back to top | Tablatures and chords for acoustic guitar and electric guitar, ukulele, drums are parodies/interpretations of the original songs. You may use it for private study, scholarship, research or language learning purposes only