» » »

Blizzard - Riffs Of Illusion 1to Tabs

Artists:  A B C D E F G H I J K L M N O P Q R S T U V W X Y Z # 

Riffs Of Illusion 1to Tabs

(ver. 1) Click to play this song!
Blizzard
 Rating:
4/5 (4 votes)

 Riffs Of Illusion 1to lessons Tabs too difficult? Try these video lessons and learn fast
 
                Riffs of Illusuion 1 - 5
Blizzard - Under the Sun (1994)

Part 1
|----------------------------------||==bend 1 step==||==bend 1 1/2==||
|-----------------------------------------------------------|||----
|-------------------/--12^-----10--12^12^12^12^12^12^12^^---<<<-----
|--10^---8/10-10^--\-----------------------------------------------
|------------------------------------------------------------------
|------------------------------------------------------------------

|------------------------------------------------------------------
|------------------------------------------------------------------
|-7--7-7--7-7-7--7---------7--7-7--7-7-7--7---------7--------------
|-7--7-7--7-7-7--7---------7--7-7--7-7-7--7---------7--------------
|-5--5-5--5-5-5--5-----3p0-5--5-5--5-5-5--5-----3p0-5--------------
|------------------3h5----------------------3h5--------------------

|-----------------------------------------------------------------------
|-----------------------------------------------------------------------
|-----------------------------------------7--7-7--7-7-7--7--------------
|---------------------5-------------------7--7-7--7-7-7--7--------------
|-----3p0-5-----7-------7---7-------------5--5-5--5-5-5--5--------------
|-3h5-------8-5---8-5-----8---8-5-8-5-8-5-------------------------------

|--------------------------------------
|--------------------------------------
|--------------------------------------
|----10-----9------------10-----9------
|--10-----9------------10-----9--------
|-8-----7-----6-------8-----7-----6----

|------------------------------------------------------------------
|------------------------------------------------------------------
|------------------------------------------------------------------
|------------------------------------------------------------------
|-------------------------3-------------------------------3--------
|-5--5-3-5--5-3-5-3-5-3-5----5--3-5--5-3-5--5-3-5-3-5-3-5---5--3-5-

|------------------------------||--------------------------------------------
|------------------------------||--------------------------------------------
|-7/9--9--9\7--7--7/9--9--9-9--||-14p12--------14p12-------14p12-------------
|-5/7--7--7\5--5--5/7--7--7-7--||-------12h14-------12h14-------12h14--------
|-5/7--7--7\5--5--5/7--7--7-7--||-------------------------------------12-----
|------------------------------||--------------------------------------------

|-----------------------------------------------
|-----------------------------------------------
|-----9--7--6------------------9--7--6--7p6-----
|-----7--5--4------------------7--5--4--5p4-----
|-----7--5--4------------------7--5--4--5p4-----
|-3/5---------------------3/5-------------------

|------------------------------------------------------------------
|------------------------------------------------------------------
|-----9--7--6--7p6--9-9/10----10--9--7-/9--------------------------
|-----7--5--4--5p4--7-7/8------8--7--5-/7--------------------------
|-----7--5--4--5p4--7-7/8------8--7--5-/7--------------------------
|-3/5--------------------------------------------------------------

|-----------------------------------
|----------------------------------
|-----5---8-7---7/8\7--7/8\7--5----
|-7---5---8-7---7/8\7--7/8\7--5----
|-7---3---6-5---5/6\5--5/6\5--3----
|-5--------------------------------

"lost in the wheels of confuision..."
|------------------------------------------------------------------
|-8^-8^-8^-8-------8~-----------10--10^--10-8-10-------------------
|------------9-7-9-------------------------------------------------
|------------------------------------------------------------------
|------------------------------------------------------------------
|------------------------------------------------------------------

(2nd part)
|------------------------------------------------------------------
|------------------------------------------------------------------
|------------------------------------------------------------------
|-----8-----10----12----10----8-----7-----8-----10----8-----7------
|--10----10----10----10----10-----8-----8-----8-----8-----8--------
|------------------------------------------------------------------

|------------------------------------------------------------------
|------------------------------------------------------------------
|-----------------3-------------------------------3----------------
|-3-5--5-5-----3--3-3-5--5-5------5--3--3-3-----3-3-3--5--5-5------
|-3-5--5-5-----3--1-3-5--5-5------5--3--3-3-----3-1-3--5--5-5------
|-1-3--3-5-----1----1-3--3-3------3--1--1-1-----1---1--3--3-3------

**2 guitars**
|------------------------------------------------------------------
|------------------------------------------------------------------
|-------------3-------------------------------3--------------------
|-/5--5-5---3-3-3--5--5-5------/5--3--3-3-----3-3--5--5-5----------
|-/5--5-5---3---3--5--5-5------/5--3--3-3-------3--5--5-5----------
|------------------------------------------------------------------

|----------------------------------------------------------------------
|----------------------------------------------------------------------
|-------------10--------------------------------------10---------------
|-10^-10^-10^-8--10-10^--10^-10^------10^-10--10-10---8--10-10^-10^-10^
|-10--10--10-----8--10---10--10-------10--8---8--8-------8--10--10--10-
|----------------------------------------------------------------------

|-15---15--15--151815-151815----15---15--15------15---13---13--13---13--13--15---15--15--
|-18^--18^-18^--------------18--18^--18^-18^-----18^--16^--16^-16^--16^-16^-18^--18^-18^-
|----------------------------------------------------------------------------------------
|------------------------------------------------------------------
|------------------------------------------------------------------
|------------------------------------------------------------------

Part 2
|-------------------------------------------------------
|---------------------------------------------7--7--7---
|---------------------------------------------7--7--7---
|--4-/-7--9---9-9---9---7---9---7-7---9\------7--7--7---
|--2-/-5--7---7-7---7---5---7---7-7---7\------5--5--5---
|-------------------------------------------------------

well, ill meet you...
|-------------------------------------------------------
|--------------------------------------------7--7--5--5-
|--------------------------------------------7--7--6--6-
|-------9--9--9-----9--9--9-----9--9---------7--7--7--7-
|-0-----7--7--7--7--7--7--7--7--7--7------0--5--5--7--7-
|--------------------------------------------------5--5-

|-2----2---2--2---------------------------------------------
|-3----3---3--3---------------------------------------------
|-2----2---2--2---------------------------------------------
|-0----0---0--0---------------------------------------------
|----------------0---2h3p2p0--2h3p2p0--2p0-0----------------
|-----------------------------------------------------------

|-------2-----2----------2-----2----------5-----5----------5-----5----------
|-----3---3-----3------3---3-----3------6---6-----6------6---6-----6--------
|---2-------2--------2-------2--------5-------5--------5-------5------------
|-0----------------0----------------0----------------0----------------------
|---------------------------------------------------------------------------
|---------------------------------------------------------------------------

solo:
|------------------------------------------------------------------------
|------------------------------------------------------------------------
|----------------------------------------------------------7-7h9---------
|-----5-5------------5-5--------------5-5--------------/9----------------
|-5-7-----7------5-7-----7--------5-7-----7----5--h7p5-------------------
|------------------------------------------------------------------------

|-------------------------------------------------------------------------------
|-------------------------------------------------------------------------------
|-9^^^^^^^p7--9p7--------------------------------------------7------------------
|-----------------9-9\7---5------------5-5----------------/9---9\7--5-7^-7-5----
|----------------------------7-----5h7-----7-----5-h7p5----------------------7--
|-------------------------------------------------------------------------------

|-------------------------
|-------------------------
|-------------------------
|-----5-5-----------------
|-5h7-----7---------------
|-------------6-5---------

Part 3 is nothing but Keyboards and the guitar doing this:
|---------8---------------
|---------8---------------
|---------8p6-------------
|-------------------------
|-------------------------
|-------------------------

Part 4

  C       I use 4th finger while holding C chord
e|--------|-------|----------------|
B|5---------------|------------5---|
G|5-------7-5---5-|5-----------5---|
D|5-----------7---|------------5---|
A|3---------------|--3-6p5p3---3---|
E|----------------|----------------|

  C        I use 4th finger while holding C chord 
e|---------|------|----------------|
B|5--------6-5-5--|5-----------5---|
G|5------5----7---|5-----------5---|
D|5*--------------|5-----------5---|
A|3*--------------|3---6p5p3---3---|
E|----------------|----------------|

  C5               Bb5   Eb5     F5
e|----------------|----------------|
B|----------------|----------------|
G|----------------|----------------|
D|5-----5-5-----5-|1-----8-8\7/8-10|
A|3-----3-3-----3-|3-----6-6\5/6-8-|
E|----------------|----------------| (X2 per verse line )

  A                G       E   G
e|----------------|----------------|
B|----------------|----------------|
G|----------------|----------------|
D|7-----7-7-----7-|5-----5-2---5---|
A|7-----7-7-----7-|5-----5-2---5---|
E|5-----5-5-----5-|3-----3-0---3---|

Part 5
Play this until infinity while following the Keyboard.
You must have the timing right to get it down pat and sound good
Listen to the record

Tiffany
|-------------------------------------------------------------------
|-------------------------------------------------------------------
|-------------------------------------------------------------------
|-------------------------------------------------------------------
|---2-1---3---2-----2-1---/5-4-3-2---2-1---3---2---3-2-1------------
|-0-----0---------0-----0----------0-----0---------------2---3---0--

Billy:
------------------------------------------------------------
---------5\3-------------------5\3-------------------10\8---
------------------------------------------------------------
---3/5---5\3--------------3/5--5\3-------------8/10--10\8---
---------------------------------------5--------------------
------------------------------------6-----------------------

--------5\3-----8------7------8------11\---7----------------6----
------------------------------------------------------------5----
---3/5--5\3-----8------7------8------11\---7----------------4----
------------------------------------------------------------5----
            
Submit corrections


        Riffs Of Illusion 1to lessons Hard to play? Try these video lessons and learn fast Riffs Of Illusion 1to lessons
        
↑ Back to top | Tablatures and chords for acoustic guitar and electric guitar, ukulele, drums are parodies/interpretations of the original songs. You may use it for private study, scholarship, research or language learning purposes only