» » »

Blizzard - Protoss Tabs

Artists:  A B C D E F G H I J K L M N O P Q R S T U V W X Y Z # 

Protoss Tabs

(ver. 1) Click to play this song!
Blizzard
 Rating:
3.4/5 (25 votes)

 Protoss lessons Tabs too difficult? Try these video lessons and learn fast
 
                Pt1
     0:00
e|-|------------------6/9-77/10~----------------6/10\9~-|-|
B|-|----------------------------------------------------|-|
G|-|---6------------5------------7------------6---------|-|
D|-|----------------------------------------------------|-|
A|-|-4--------------3------------5------------4---------|-|
E|-|----------------------------------------------------|-|

     0:39                         1:22
e|-|---------|--------------------|-67676767-46464646-24242424-67676767-6h7p6h7-|-|
B|-|---------|--------------------|---------------------------------------------|-|
G|-|---------|--------------------|---------------------------------------------|-|
D|-|---------|-11-6-11-6/13-11-11-|---------------------------------------------|-|
A|-|---------|--------------------|---------------------------------------------|-|
E|-|-5\4-5\4-|--------------------|---------------------------------------------|-|

     1:38
e|-|-----------13------------------------------------------|-|
B|-|-6-7--6-------6-7--9-------6-7--6-------6-7------------|-|
G|-|-------------------------------------------------------|-|
D|-|---------------------------------------------7---5---3-|-|
A|-|-------------------------------------------------------|-|
E|-|--------44-----------44-----------44-------------------|-|

     2:18 (harp sounding part)
e|-|--------9-11-9-12-9-11-9-----------------|-|
B|-|------9------------------10-9------------|-|
G|-|----9-------------------------11-9-------|-|
D|-|-11--------------------------------12-11-|-|
A|-|-----------------------------------------|-|
E|-|-----------------------------------------|-|

     2:20
e|-|----------------------6-6/9-6\5---6-6/9-6\5-|-|
B|-|--------------------------------------------|-|
G|-|--------------------------------------------|-|
D|-|--------------------------------------------|-|
A|-|-4-4-454--4-4-454-64------------------------|-| <<< One octave lower (6 might be a 7)
E|-|--------------------------------------------|-|

     2:36
e|-|-----7-8--------------------------------------------|-|
B|-|-6-5------------------------------------------------|-|
G|-|----------------------------------------------------|-|
D|-|----------------------------------------------------|-|
A|-|----------------------------------------------------|-|
E|-|----------------------------------------------------|-|

     3:08
e|-|--------------10-----------10---------9--------9---|-|
B|-|------------------------------10-----------------9-|-|
G|-|-----------11----------11-----------9--------9-----|-|
D|-|--------12----------12-----------11-------11-------|-|
A|-|-4-------------------------------------------------|-| <<< One octave lower
E|-|---------------------------------------------------|-|

     3:22         3:39            3:47
e|-|-----------||-11------9-----|-11---------9---------|-|
B|-|-----------||-----7-9-------|-----7-9-11-----------|-|
G|-|-----------||---------------|------------6---------|-|
D|-|-8--8-6--9-||---------------|----------------------|-|
A|-|-----------||---------------|----------------------|-|
E|-|-----------||---------------|----------------------|-|

     3:55
e|-|----------------------------|-|
B|-|----------------------------|-|
G|-|-4--3--5--------------------|-|
D|-|-------------2--------------|-|
A|-|----------------3-----------|-|
E|-|----------------------------|-|

Pt2
     4:10
e|-|---------------------------------------------|-|
B|-|---------------------------------------------|-|
G|-|-8--7--8--7--10-(9)-8--7--8--7--10-(9)-8--9--|-| (unsure)
D|-|---------------------------------------------|-|
A|-|-6--5--6--5--8--(7)-6--5--6--5--8--(7)-6--7--|-| (unsure)
E|-|---------------------------------------------|-|

e|-|----------------------------|-|
B|-|----------------------------|-|
G|-|----------------------------|-|
D|-|----------------------------|-|
A|-|-6676-6676-6686-------------|-| kinda-ish
E|-|----------------------------|-|


     5:24                                         6:03
e|-|-----------------10---9---8---7-----|--------------------------------9-10------9----5-9-8-----7------|-|
B|-|-6---5---9---8--------------------5-|-6----5/9----8/12-9-11-12----12--------12--------------9------5-|-|
G|-|------------------------------------|----------------------------------------------------------------|-|
D|-|------------------------------------|----------------------------------------------------------------|-|
A|-|------------------------------------|----------------------------------------------------------------|-|
E|-|------------------------------------|----------------------------------------------------------------|-|

     6:39
e|-|-------------------------------|-|
B|-|-6---4---6---4---6---4---6---4-|-|
G|-|-------------------------------|-|
D|-|-------------------------------|-|
A|-|-------------------------------|-|
E|-|-------------------------------|-|

     7:21
e|-|-13-11-13-11--8-6-8-6--6-5-6-5--6-5-6-5-|-|
B|-|----------------------------------------|-|
G|-|----------------------------------------|-|
D|-|----------------------------------------|-|
A|-|----------------------------------------|-|
E|-|----------------------------------------|-|

     8:05
e|-|---------------------------------------------------------8-8-8-11-10----------------/13----------|-|
B|-|----------------------------------------------9-9-9-8-6---------------6-6-8/9-8\6--5-------------|-|
G|-|----------------5-5-5-8-7------------------------------------------------------------------------|-|
D|-|-3---6-6-6-5-3-------------3-3-5/6-5\3-6-5-3-----------------------------------------------------|-|
A|-|-3-----------------------------------------------------------------------------------------------|-|
E|-|-1-----------------------------------------------------------------------------------------------|-|

     8:37
e|-|-12-13~----------------------------------------------|-|
B|-|--------6-4-7-6--4-2-5-4-----------------------------|-|
G|-|--------------------------5-3-6-5--------------------|-|
D|-|-----------------------------------3-1-4-3-----------|-|
A|-|-----------------------------------------------------|-|
E|-|-----------------------------------------------------|-|            
Submit corrections


        Protoss lessons Hard to play? Try these video lessons and learn fast Protoss lessons
        
↑ Back to top | Tablatures and chords for acoustic guitar and electric guitar, ukulele, drums are parodies/interpretations of the original songs. You may use it for private study, scholarship, research or language learning purposes only