Home » B » Blitz »

Blitz - Someones Gonna Die Bass

Artists:  A B C D E F G H I J K L M N O P Q R S T U V W X Y Z # 

Someones Gonna Die Bass

(ver. 2) Click to play this song!
Blitz
Main
G--------------------------------------------------------------------------------------------------|
D--------------------------------------------------------------------------------------------------|
A----------5-5-5-5-5-5-5-----------5-5-5-5-5-5-5-----------5-5-5-5-5-5-5-----------5-5-5-5-5-5-5---|
E-5-5-5-5-----------------5-5-5-5-----------------5-5-5-5-----------------5-5-5-5------------------|

G--------------------------------------|
D--------------------------------------|
A----------5-5-5-5---------------------|
E-5-5-5-5-----------3-3-3-3--5-5-5-5---|

Verse
G-----------------------------------------------------------------|
D-----------------------------------------------------------------|
A----------5-5-5-5-----------------------------5-5-5-5------------|
E-5-5-5-5-----------3-3-3-3--5-5-5-5--5-5-5-5-----------3-3-3-3---|

Chorus 
G-----------------------------------------------------------------------------------------|
D-----------------------------------------------------------------------------------------|
A-5-5-5------------------------5-5-5------------------------5-5-5-------------------------|
E--------3-3-3--5-5-5-5-5-5-5---------3-3-3--5-5-5-5-5-5-5---------3-3-3--5-5-5-5-5-5-5---|

G----------------------------------|
D----------------------------------|
A-5-5-5--10-10-10--5-5-5-5-5-5-5---|
E----------------------------------|

Main
G--------------------------------------------------------------------------------------------------|
D--------------------------------------------------------------------------------------------------|
A----------5-5-5-5-5-5-5-----------5-5-5-5-5-5-5-----------5-5-5-5-5-5-5-----------5-5-5-5-5-5-5---|
E-5-5-5-5-----------------5-5-5-5-----------------5-5-5-5-----------------5-5-5-5------------------|

G--------------------------------------|
D--------------------------------------|
A----------5-5-5-5---------------------|
E-5-5-5-5-----------3-3-3-3--5-5-5-5---|

Verse
G-----------------------------------------------------------------|
D-----------------------------------------------------------------|
A----------5-5-5-5-----------------------------5-5-5-5------------|
E-5-5-5-5-----------3-3-3-3--5-5-5-5--5-5-5-5-----------3-3-3-3---|

Chorus 
G-----------------------------------------------------------------------------------------|
D-----------------------------------------------------------------------------------------|
A-5-5-5------------------------5-5-5------------------------5-5-5-------------------------|
E--------3-3-3--5-5-5-5-5-5-5---------3-3-3--5-5-5-5-5-5-5---------3-3-3--5-5-5-5-5-5-5---|

G----------------------------------|
D----------------------------------|
A-5-5-5--10-10-10--5-5-5-5-5-5-5---|
E----------------------------------|

Main
G--------------------------------------------------------------------------------------------------|
D--------------------------------------------------------------------------------------------------|
A----------5-5-5-5-5-5-5-----------5-5-5-5-5-5-5-----------5-5-5-5-5-5-5-----------5-5-5-5-5-5-5---|
E-5-5-5-5-----------------5-5-5-5-----------------5-5-5-5-----------------5-5-5-5------------------|

Intro (goes into intro after main bridge)
G-----------------------------------------|
D-----------------------------------------|
A-----------------------------------------|
E----5----------5----------5----------5---|

Main 
G--------------------------------------------------|
D--------------------------------------------------|
A----------5-5-5-5-5-5-5-----------5-5-5-5-5-5-5---|
E-5-5-5-5-----------------5-5-5-5------------------|

G--------------------------------------|
D--------------------------------------|
A----------5-5-5-5---------------------|
E-5-5-5-5-----------3-3-3-3--5-5-5-5---|

Verse
G-----------------------------------------------------------------|
D-----------------------------------------------------------------|
A----------5-5-5-5-----------------------------5-5-5-5------------|
E-5-5-5-5-----------3-3-3-3--5-5-5-5--5-5-5-5-----------3-3-3-3---|

Chorus 
G-----------------------------------------------------------------------------------------|
D-----------------------------------------------------------------------------------------|
A-5-5-5------------------------5-5-5------------------------5-5-5-------------------------|
E--------3-3-3--5-5-5-5-5-5-5---------3-3-3--5-5-5-5-5-5-5---------3-3-3--5-5-5-5-5-5-5---| 

G----------------------------------|
D----------------------------------|
A-5-5-5--10-10-10--5-5-5-5-5-5-5---|
E----------------------------------|

G-----------------------------------------------------------------------------------------|
D-----------------------------------------------------------------------------------------|
A-5-5-5------------------------5-5-5------------------------5-5-5-------------------------|
E--------3-3-3--5-5-5-5-5-5-5---------3-3-3--5-5-5-5-5-5-5---------3-3-3--5-5-5-5-5-5-5---|

G----------------------------|
D----------------------------|
A-5-5-5--10-10-10--5-5-5-5---|
E----------------------------|
            
Submit corrections

↑ Back to top | Tablatures and chords for acoustic guitar and electric guitar, ukulele, drums are parodies/interpretations of the original songs. You may use it for private study, scholarship, research or language learning purposes only