Home » B » Blitz »

Blitz - Never Surender Bass

Artists:  A B C D E F G H I J K L M N O P Q R S T U V W X Y Z # 

Never Surender Bass

(ver. 1) Click to play this song!
Blitz
Intro 
G-------------------------------|-------------------------------|
D-------------------------5~-3~-|-------------------------5~-3~-|
A-5-5-5-5-5-5-5-5-5-5-5-5-------|-5-5-5-5-5-5-5-5-5-5-5-5-------|
E-------------------------------|-------------------------------|

G-------------------------------|-------------------------------|---------|
D-------------------------5~-3~-|-------------------------5~-3~-|---------|
A-5-5-5-5-5-5-5-5-5-5-5-5-------|-5-5-5-5-5-5-5-5-5-5-5-5-------|-5-------|
E-------------------------------|-------------------------------|---------|

Verse 1
G-------------------------------|-------------------------------|
D-------------------------5~-3~-|-------------------------5~-3~-|
A-5-5-5-5-5-5-5-5-5-5-5-5-------|-5-5-5-5-5-5-5-5-5-5-5-5-------|
E-------------------------------|-------------------------------|

G-------------------------------|-----------------------------|
D-------------------------5~-3~-|-----------------------------|
A-5-5-5-5-5-5-5-5-5-5-5-5-------|-3-3-3-3-3-3-3-3-3-3-3-3-3-3-|
E-------------------------------|-----------------------------|

Verse 2
G-------------------------------|-------------------------------|
D-------------------------5~-3~-|-------------------------5~-3~-|
A-5-5-5-5-5-5-5-5-5-5-5-5-------|-5-5-5-5-5-5-5-5-5-5-5-5-------|
E-------------------------------|-------------------------------|
                                 (Short bridge)                 x2
G-------------------------------|---------------------------------|
D-------------------------5~-3~-|-------------------------1-1-1-1-|
A-5-5-5-5-5-5-5-5-5-5-5-5-------|-3-3-3-3-3-3-3-3-1-1-1-1---------|
E-------------------------------|---------------------------------|

Verse 3
G-------------------------------|-------------------------------|
D-------------------------5~-3~-|-------------------------5~-3~-|
A-5-5-5-5-5-5-5-5-5-5-5-5-------|-5-5-5-5-5-5-5-5-5-5-5-5-------|
E-------------------------------|-------------------------------|

G-------------------------------|-------------------------------|
D-------------------------5~-3~-|-------------------------5~-3~-|
A-5-5-5-5-5-5-5-5-5-5-5-5-------|-5-5-5-5-5-5-5-5-5-5-5-5-------|
E-------------------------------|-------------------------------|

G-------------------------------|-------------------------------|
D-------------------------5~-3~-|-------------------------5~-3~-|
A-5-5-5-5-5-5-5-5-5-5-5-5-------|-5-5-5-5-5-5-5-5-5-5-5-5-------|
E-------------------------------|-------------------------------|

G-------------------------------|-----------------------------|----|
D-------------------------5~-3~-|-----------------------------|----|
A-5-5-5-5-5-5-5-5-5-5-5-5-------|-3-3-3-3-3-3-3-3-3-3-3-3-3-3-|-5--|
E-------------------------------|-----------------------------|----|
            
Submit corrections

↑ Back to top | Tablatures and chords for acoustic guitar and electric guitar, ukulele, drums are parodies/interpretations of the original songs. You may use it for private study, scholarship, research or language learning purposes only