Home » B » Blitz »

Blitz - 4.Q Bass

Artists:  A B C D E F G H I J K L M N O P Q R S T U V W X Y Z # 

4.Q Bass

(ver. 2) Click to play this song!
Blitz
Intro
(No intro for Bass, come in at 11 seconds)

Verse
G------------------------------------------------|
D------------------------------------------------|
A------------------3-3-3--1-1-1-1-1-1-1-1--3-3-3-|
E-1-1-1-1-1-1-1-1--------------------------------|

Chorus
G-------------------------|
D-------------------------|
A-----------------3-3-1-1-|
E-1-1-1-1-1-1-1-1---------|

Bridge/Solo (same as verse)
G------------------------------------------------|
D------------------------------------------------|
A------------------3-3-3--1-1-1-1-1-1-1-1--3-3-3-|
E-1-1-1-1-1-1-1-1--------------------------------|


***
just listen for the order
            
Submit corrections

↑ Back to top | Tablatures and chords for acoustic guitar and electric guitar, ukulele, drums are parodies/interpretations of the original songs. You may use it for private study, scholarship, research or language learning purposes only