Home » B » Blink-182 »

Blink-182 - Ransom Bass

Artists:  A B C D E F G H I J K L M N O P Q R S T U V W X Y Z # 

Ransom Bass

(ver. 1) Click to play this song!
Blink-182
 Rating:
4.3/5 (24 votes)
                [Intro]
G|-------------------|-------------------|-------------------|-------------------|
D|-------------------|-------------------|-------------------|-------------------|
A|--4---4---------4--|--5---5------------|-------------------|-------------------|
E|-------------------|-------------------|--5---5---------5--|--7---7------------|
 
G|-------------------|-------------------|
D|-------------------|-------------------|
A|--4---4---------4--|--5---5------------|
E|-------------------|-------------------|
 
 
[Verse 1]
G|-------------------|-------------------|-------------------|-------------------|
D|-------------------|-------------------|-------------------|-------------------|
A|--4---4---4-----4--|--5---5---5--------|-------------------|-------------------| (x3)
E|-------------------|-------------------|--5---5---5-----5--|--7---7---7--------|
 
 
[Chorus 1]
G|-------------------|-------------------|-------------------|-------------------|
D|-------------------|-------------------|-------------------|-------------------|
A|-------------------|--5-5-5-5-5-7-7-7--|-------------------|-------------------| (x3)
E|--2-2-2-2-2-2-2-2--|-------------------|--5-5-5-5-5-5-5-5--|--0-0-0-0-0-0-0-0--|
 
G|-------------------|-------------------|-------------------|-------------------|
D|-------------------|-------------------|-------------------|-------------------|
A|-------------------|--5-5-5-5-5-7-7-7--|-------------------|-------------------|
E|--2-2-2-2-2-2-2-2--|-------------------|--5-5-5-5-5-5-5-5--|--0---0---0---0----|
 
G|-------------------|-------------------|-------------------|-------------------|
D|-------------------|-------------------|-------------------|-------------------|
A|-------------------|--5-5-5-5-5-7-7-7--|-------------------|-------------------| (x2)
E|--2-2-2-2-2-2-2-2--|-------------------|--5-5-5-5-5-5-5-5--|--0-0-0-0-0-0-0-0--|
 
G|-------------------|-------------------|-------------------|
D|-------------------|-------------------|-------------------|
A|-------------------|-------------------|-------------------|
E|--2-2---2---2---2--|-------------------|--2----------------|
            
Submit corrections

↑ Back to top | Tablatures and chords for acoustic guitar and electric guitar, ukulele, drums are parodies/interpretations of the original songs. You may use it for private study, scholarship, research or language learning purposes only