» » »

*Blink 182* - Long Lost Feeling Tabs

Artists:  A B C D E F G H I J K L M N O P Q R S T U V W X Y Z # 

Long Lost Feeling Tabs

(ver. 1) Click to play this song!
*Blink 182*
 Rating:
4.3/5 (23 votes)


 Long Lost Feeling  lessons Tabs too difficult? Try these video lessons and learn fast
 
                [Intro]
e|-----------------------------------------------|
B|-----------------------------------------------|
G|-----------------------------------------------|
D|-----------------------------------------------|
A|----6-----6-----6-----6-----6-----6-----6-----6|
E|3-3---3-3---3-3---3-3---4-4---4-4---4-4---4-4--|

[Verse]
e|-----------------------------------------------|
B|-----------------------------------------------|
G|-----------------------------------------------|
D|-----------------------------------------------|
A|----6-----6-----6-----6-----6-----6-----6-----6|
E|3-3---3-3---3-3---3-3---4-4---4-4---4-4---4-4--|

e|-------------------------------------------------|
B|-------------------------------------------------|
G|-------------------------------------------------|
D|-------------------------------------------------|
A|----10-----10-----8-----8-----6-----6-----6-----6|
E|8-8----8-8----6-6---6-6---4-4---4-4---4-4---4-4--|

Gtr. II (ringing background)
e|-----------------------------------------------------------------|
B|-----------------------------------------------------------------|
G|--8---8---8---8---8---8---8----12----12---10---10---8---8---8---8|
D|5---5---5---5---6---6---6---10----10----8----8----6---6---6---6--|
A|-----------------------------------------------------------------|
E|-----------------------------------------------------------------|

e|--------------------------------|
B|------------------------(8)-----|
G|-----------------------------(7)|
D|--------------------------------|
A|----10----8---6---6---6---6-----|
E|8-8----\6---4---4---4---4---x-3-|

[Chorus]
e|---------------------------------------------------------------------------------------------|
B|---------------------------------------------------------------------------------------------|
G|---------------------------------------------------------------------------------------------|
D|----------------------------------------------------5-----5-----5-----5----------------------|
A|----10-----10-----10\8\6-----8-----8-----8\6\5--3-3---3-3---3-3---3-3--------6-----6-----6--6|
E|8-8----8-8----8-8--------6-6---6-6---6-6---------------------------------4-4---4-4---4-4--4--|

e|---------------------------------------------------------------------------------------------|
B|---------------------------------------------------------------------------------------------|
G|---------------------------------------------------------------------------------------8\6\5-|
D|----------------------------------------------------5-----5-----5-----5----------------------|
A|----10-----10-----10\8\6-----8-----8-----8\6\5--3-3---3-3---3-3---3-3--------6-----6---------|
E|8-8----8-8----8-8--------6-6---6-6---6-6---------------------------------4-4---4-4---4-------|

[Bridge]
e|---------------------------------------------------------------------------------------------|
B|---------------------------------------------------------------------------------------------|
G|---------------------------------------------------------------------------------------------|
D|----------------------------------------------------5-----5-----5-----5----------------------|
A|----10-----10-----10\8\6-----8-----8-----8\6\5--3-3---3-3---3-3---3-3--------6-----6-----6--6|
E|8-8----8-8----8-8--------6-6---6-6---6-6---------------------------------4-4---4-4---4-4--4--|

e|---------------------------------------------------------------------------------------------|
B|---------------------------------------------------------------------------------------------|
G|---------------------------------------------------------------------------------------8\6\5-|
D|----------------------------------------------------5-----5-----5-----5----------------------|
A|----10-----10-----10\8\6-----8-----8-----8\6\5--3-3---3-3---3-3---3-3--------6-----6---------|
E|8-8----8-8----8-8--------6-6---6-6---6-6---------------------------------4-4---4-4---4-------|

[Outro]
e|------------------------------------------------------------------------------|
B|--------------------------------------------------------------------------4~~~|
G|--------------------------------------------------------------------------5~~~|
D|----------------------------------------------------5-----5-----5-----5---6~~~|
A|----10-----10-----10\8\6-----8-----8-----8\6\5--3-3---3-3---3-3---3-3-----6~~~|
E|8-8----8-8----8-8--------6-6---6-6---6-6--------------------------------------|
            
Submit corrections



        Long Lost Feeling  lessons Hard to play? Try these video lessons and learn fast Long Lost Feeling  lessons
        
↑ Back to top | Tablatures and chords for acoustic guitar and electric guitar, ukulele, drums are parodies/interpretations of the original songs. You may use it for private study, scholarship, research or language learning purposes only