Home » B » Blink-182 »

Blink-182 - Hungover You Bass

Artists:  A B C D E F G H I J K L M N O P Q R S T U V W X Y Z # 

Hungover You Bass

(ver. 1) Click to play this song!
Blink-182
 Rating:
4.3/5 (21 vote)
                [Verse 1]
Gb|-----------------------------------------------|-----------------------------------------------|
Db|-----------------------------------------------|-----------------------------------------------|
Ab|--------------3---3---3---5---5---5--5---5-----|--------------3---3---3---5---5---5--2---2-----| (x2)
Eb|--0---0---0------------------------------------|--0---0---0------------------------------------|
 
 
[Pre-Chorus 1]
Gb|-----------------------------------------------|-----------------------------------------------|
Db|-----------------------------------------------|-----------------------------------------------|
Ab|--------------3---3---3---5---5---5--5---5-----|--------------3---3---3---5---5---5--2---2-----| (x2)
Eb|--0---0---0------------------------------------|--0---0---0------------------------------------|
 
 
[Chorus 1]
Gb|-----------------------------------------------|-----------------------------------------------|
Db|-----------------------------------------------|-----------------------------------------------|
Ab|-----------------------------------------------|--5---5---5--5---5---5---3---3---3--3---3---3--| (x2)
Eb|--0---0---0--0---0---0---3---3---3--3---3---3--|-----------------------------------------------|
 
 
[Pre-Verse 1]
Gb|-----------------------------------------------|
Db|-----------------------------------------------|
Ab|--------------3---3---3---5---5---5--5---5-----| (x2)
Eb|--0---0---0------------------------------------|
 
 
[Verse 2]
Gb|-----------------------------------------------|-----------------------------------------------|
Db|-----------------------------------------------|-----------------------------------------------|
Ab|--------------3---3---3---5---5---5--5---5-----|--------------3---3---3---5---5---5--2---2-----| (x2)
Eb|--0---0---0------------------------------------|--0---0---0------------------------------------|
 
 
[Pre-Chorus 2]
Gb|-----------------------------------------------|-----------------------------------------------|
Db|-----------------------------------------------|-----------------------------------------------|
Ab|--------------3---3---3---5---5---5--5---5-----|--------------3---3---3---5---5---5--2---2-----|
Eb|--0---0---0------------------------------------|--0---0---0------------------------------------|
 
Gb|-----------------------------------------------|-----------------------------------------------|
Db|-----------------------------------------------|-----------------------------------------------|
Ab|--------------3---3---3---5---5---5--5---5-----|--------------3---3---3---5---5---5--2---------|
Eb|--0---0---0------------------------------------|--0---0---0------------------------------------|
 
 
[Chorus 2]
Gb|-----------------------------------------------|-----------------------------------------------|
Db|-----------------------------------------------|-----------------------------------------------|
Ab|-----------------------------------------------|--5---5---5--5---5---5---3---3---3--3---3---3--| (x2)
Eb|--0---0---0--0---0---0---3---3---3--3---3---3--|-----------------------------------------------|
 
 
[Verse 3]
Gb|-----------------------------------------------|-----------------------------------------------|
Db|-----------------------------------------------|-----------------------------------------------|
Ab|--------------3---3---3---5---5---5--5---5-----|--------------3---3---3---5---5---5--2---2-----|
Eb|--0---0---0------------------------------------|--0---0---0------------------------------------|
 
 
[Chorus 3]
Gb|-----------------------------------------------|-----------------------------------------------|
Db|-----------------------------------------------|-----------------------------------------------|
Ab|-----------------------------------------------|-----------------------------------------------|
Eb|-----------------------------------------------|-----------------------------------------------|
 
Gb|-----------------------------------------------|-----------------------------------------------|
Db|-----------------------------------------------|-----------------------------------------------|
Ab|-----------------------------------------------|--5---5---5--5---5---5---3---3---3--3---3---3--| (x3)
Eb|--0---0---0--0---0---0---3---3---3--3---3---3--|-----------------------------------------------|
 
 
[Outro] - Synth Bass
Gb|-----------------------------------------------|-------------------------------------------------|
Db|-----------------------------------------------|-------------------------------------------------|
Ab|------3-------------------3--------------------|------3---------3---------3----------------------|
Eb|--0-2---0-------------0-2---0------------------|--0-2---0---0-2---0---0-2---0-------------0-2---0|
            
Submit corrections

↑ Back to top | Tablatures and chords for acoustic guitar and electric guitar, ukulele, drums are parodies/interpretations of the original songs. You may use it for private study, scholarship, research or language learning purposes only