» » »

*Blink 182* - Dont Mean Anything Tabs

Artists:  A B C D E F G H I J K L M N O P Q R S T U V W X Y Z # 

Dont Mean Anything Tabs

(ver. 1) Click to play this song!
*Blink 182*
 Rating:
4.3/5 (18 votes)


 Dont Mean Anything  lessons Tabs too difficult? Try these video lessons and learn fast
 
                [Intro / verse]

e|---------------------------------------------------------------------------|
B|---------------------------------------------------------------------------|
G|---11-7---11-7---11-7---11-7---11-7---11-7---11-7---11-7-------------------|
D|-9------9------9------9--------------------5------5------------------------|
A|-----------------------------8------8--------------------------------------|
E|---------------------------------------------------------------------------|

Guitar 2 - (start after 1 time intro)

e|---------------------------------------------------------------------------|
B|---------------------------------------------------------------------------|
G|-444444444444444------------------------4444444444444444-------------------|
D|-444444444444444-55555555-77777777------4444444444444444-5-----------------|
A|-222222222222222-55555555-77777777-(x3)-2222222222222222-5-----------------|
E|-----------------33333333-55555555-----------------------3-----------------|
   *************** ******** ********      ***************

[Chorus] Guitar 1

e|---------------------------------------------------------------------------|
B|---------------------------------------------------------------------------|
G|-777-9-11----9-11-----9-11-121212-11-9-------------------------------------|
D|-xxx-x-x-777-x-x--999-x-x--xxxxxx-x--x-(x2)--------------------------------|
A|-555-7-9-xxx-7-9--xxx-7-9--101010-9--7-------------------------------------|
E|---------555------777------------------------------------------------------|

e|---------------------------------------------------------------------------|
B|---------------------------------------------------------------------------|
G|-77777777----------11111111-999999999--------------------------------------|
D|-xxxxxxxx-55555555-xxxxxxxx-xxxxxxxxx-(x2)---------------------------------|
A|-55555555-xxxxxxxx-99999999-777777777--------------------------------------|
E|----------33333333---------------------------------------------------------|

e|---------------------------------------------------------------------------|
B|---------------------------------------------------------------------------|
G|-777-9-11----9-11-----9-11-121212-11-9-------------------------------------|
D|-xxx-x-x-777-x-x--999-x-x--xxxxxx-x--x-------------------------------------|
A|-555-7-9-xxx-7-9--xxx-7-9--101010-9--7-------------------------------------|
E|---------555------777------------------------------------------------------|

[Chorus] Guitar 2

e|---------------------------------------------------------------------------|
B|---------------------------------------------------------------------------|
G|-77777777------------------------------------------------------------------|
D|-77777777-77777777-999999999-55555555--------------------------------------|
A|-55555555-77777777-999999999-55555555-(x2)---------------------------------|
E|----------55555555-777777777-33333333--------------------------------------|

e|---------------------------------------------------------------------------|
B|---------------------------------------------------------------------------|
G|-44444444----------77777777------------------------------------------------|
D|-44444444-55555555-77777777--77777777--------------------------------------|
A|-22222222-55555555-55555555--77777777--------------------------------------|
E|----------33333333-----------55555555--------------------------------------|

e|---------------------------------------------------------------------------|
B|---------------------------------------------------------------------------|
G|-77777777------------------------------------------------------------------|
D|-77777777-77777777-999999999-55555555--------------------------------------|
A|-55555555-77777777-999999999-55555555--------------------------------------|
E|----------55555555-777777777-33333333--------------------------------------|



0verse 2]

e|---------------------------------------------------------------------------|
B|---------------------------------------------------------------------------|
G|---11-7---11-7---11-7---11-7---11-7---11-7---11-7---11-7-------------------|
D|-9------9------9------9--------------------5------5------------------------|
A|-----------------------------8------8--------------------------------------|
E|---------------------------------------------------------------------------|

Guitar 2
e|---------------------------------------------------------------------------|
B|---------------------------------------------------------------------------|
G|-444444444444444-----------------------------------------------------------|
D|-444444444444444-55555555-77777777-----------------------------------------|
A|-222222222222222-55555555-77777777-(x4)--(last time slowly release pm------|
E|-----------------33333333-55555555-----------------------------------------|
   *************** ******** ********      

Chorus 2

Bridge

e|---------------------------------------------------------------------------|
B|---------------------------------------------------------------------------|
G|--77777777-----------------------------------------------------------------|
D|--77777777-77777777-99999999-55555555--------------------------------------|
A|--55555555-77777777-99999999-55555555--(last time slowly release) ---------|
E|-----------55555555-77777777-33333333--------------------------------------|
    ******** ******** ******** ********
Chorus 3 (both) 

e|---------------------------------------------------------------------------|
B|---------------------------------------------------------------------------|
G|-7--------------------------------------------------------------------------|
D|-7-7-9-5-----------------------------------------------------------------------|
A|-5-7-9-5-----------------------------------------------------------------------|
E|---5-7-3----------------------------------------------------------------------|

continue chorus normally

Outro
e|--14----14----12----12----15----15-----12----12-15-------------------------|
B|-----15----15----15----15----15-----15----15-------------------------------|
G|---------------------------------------------------------------------------|
D|---------------------------------------------------------------------------|
A|---------------------------------------------------------------------------|
E|---------------------------------------------------------------------------|

e|--14----14----12----12----15----15-----12----12-15-14----------------------|
B|-----15----15----15----15----15-----15----15----15-15----------------------|
G|---------------------------------------------------------------------------|
D|---------------------------------------------------------------------------|
A|---------------------------------------------------------------------------|
E|---------------------------------------------------------------------------|
            
Submit corrections



        Dont Mean Anything  lessons Hard to play? Try these video lessons and learn fast Dont Mean Anything  lessons
        
↑ Back to top | Tablatures and chords for acoustic guitar and electric guitar, ukulele, drums are parodies/interpretations of the original songs. You may use it for private study, scholarship, research or language learning purposes only