» » »

Blink-182 - Cynical Tabs

Artists:  A B C D E F G H I J K L M N O P Q R S T U V W X Y Z # 

Cynical Tabs

(ver. 1) Click to play this song!
Blink-182
 Rating:
4.3/5 (13 votes)

 Cynical  lessons Tabs too difficult? Try these video lessons and learn fast
 
                [Intro] [Bass Only]

[Intro Part 1] [Guitar And Drums Kick In]

e|---------------------------------------------------------------------------|
B|---------------------------------------------------------------------------|
G|---------------------------------------------------------------------------|
D|-3-3---3-3-3-----------------3-3---3-3-3-----------------------------------|
A|-3-3---3-3-3-----------------3-3---3-3-3-----------------------------------|
E|-1-1---1-1-1-----------------1-1---1-1-1-----------------------------------|


[Intro Part 2 (After Travis's "ah"]
e|---------------------------------------------------------------------------|
B|---------------------------------------------------------------------------|
G|-10-10--10-10-10-10--(x2)-------9-9---9-9-9-9------(x2)---7-7---7-7-7-7--(x2)---|
D|-x--x---x--x---x--x-------------x-x---x-x-x-x-------------x-x---x-x-x-x---------|
A|-8--8---8--8---8--8-------------7-7---7-7-7-7-------------5-5---5-5-5-5---------|
E|---------------------------------------------------------------------------|

e|---------------------------------------------------------------------------|
B|---------------------------------------------------------------------------|
G|--5-5---5-5-5-5------------10-9-10-15--------------------------------------|
D|--x-x---x-x-x-x-------------x-x-x--x---------------------------------------|
A|--3-3---3-3-3-3-------------8-7-8--13--------------------------------------|
E|---------------------------------------------------------------------------|

[Verse "Dont Wake Me Up Before You Leave"]
e|---------------------------------------------------------------------------|
B|---------------------------------------------------------------------------|
G|-10-10--10-10-10-10--(x2)-------9-9---9-9-9-9------(x2)---7-7---7-7-7-7--(x2)---|
D|-x--x---x--x---x--x-------------x-x---x-x-x-x-------------x-x---x-x-x-x---------|
A|-8--8---8--8---8--8-------------7-7---7-7-7-7-------------5-5---5-5-5-5---------|
E|---------------------------------------------------------------------------|

e|---------------------------------------------------------------------------|
B|---------------------------------------------------------------------------|
G|--5-5---5-5-5-5------------10-9-10--12--------(Repeat Whole Phrase---------|
D|--x-x---x-x-x-x-------------x-x-x---x----------Except 2nd Time it Ends-----|
A|--3-3---3-3-3-3-------------8-7-8--10----------With a Pickslide before-----|
E|-----------------------------------------------Chorus)---------------------|


[Chorus "What's The Point of Saying Sorry Now?!"]
e|---------------------------------------------------------------------------|
B|---------------------------------------------------------------------------|
G|---10--9---10---------15---14-----------10---9--10------Repeat x2----------|
D|---x---x---x----------x----x-------------x---x--x--------------------------|
A|---8---7---8----------13---12------------8---7--8--------------------------|
E|---------------------------------------------------------------------------|


[Outro "I'm Not Sorry Now!"]

e|---------------------------------------------------------------------------|
B|---------------------------------------------------------------------------|
G|----10--10--10--10---------------------------------------------------------|
D|----x---x---x---x---------------3~~~---------------------------------------|
A|----8---8---8---8---------------3~~~---------------------------------------|
E|--------------------------------1~~~---------------------------------------|            
Submit corrections


        Cynical  lessons Hard to play? Try these video lessons and learn fast Cynical  lessons
        
↑ Back to top | Tablatures and chords for acoustic guitar and electric guitar, ukulele, drums are parodies/interpretations of the original songs. You may use it for private study, scholarship, research or language learning purposes only