» » »

Blink - I Miss You Tabs

Artists:  A B C D E F G H I J K L M N O P Q R S T U V W X Y Z # 

I Miss You Tabs

(ver. 3) Click to play this song!
Blink
 Rating:
4/5 (4 votes)
                
Introduction: (strumming pattern shown)
e|----------------------------------------------------------------|
B|----------------------------------------------------------------|
G|-4-4-4/8--8-8~---4-4-4/8--8-8~---4-4-4/8--8-8~---4-4-4/8--8-8\4~|
D|-4-4-4/x--x-x~---4-4-4/x--x-x~---4-4-4/x--x-x~---4-4-4/x--x-x\4~|
A|-2-2-2/6--6-6~---2-2-2/6--6-6~---2-2-2/6--6-6~---2-2-2/6--6-6\2~|
E|-x-x-x/7--7-7~---x-x-x/7--7-7~---x-x-x/7--7-7~---x-x-x/7--7-7\x~|


Verse 1,2: (same as intro.)
e|----------------------------------------------------------------|
B|----------------------------------------------------------------|
G|-4-4-4/8--8-8~---4-4-4/8--8-8~---4-4-4/8--8-8~---4-4-4/8--8-8\4~|
D|-4-4-4/x--x-x~---4-4-4/x--x-x~---4-4-4/x--x-x~---4-4-4/x--x-x\4~|
A|-2-2-2/6--6-6~---2-2-2/6--6-6~---2-2-2/6--6-6~---2-2-2/6--6-6\2~|
E|-x-x-x/7--7-7~---x-x-x/7--7-7~---x-x-x/7--7-7~---x-x-x/7--7-7\x~|
  1.hello there, the angel from my nightmare....
     2.where are you? and I'm so sorry....


Chorus: guitar 1
e|-----------------------------------------
B|-----------------------------------------
G|-4-4-444--4-4-444--8-8-888--11-11-111111-
D|-4-4-444--4-4-444--8-8-888--11-11-111111-
A|-2-2-222--4-4-444--6-6-666---9--9--9-9-9-
E|-x-x-xxx--x-x-xxx--x-x-xxx---x--x--x-x-x-
  don't waste your time on me....           

guitar 2
e|-------------------------------------|
B|-4-4-444--4-4-444--4-4-444--2-2-2222-|
G|-4-4-444--4-4-444--4-4-444--4-4-4444-|
D|-x-x-xxx--x-x-xxx--1-1-111--4-4-4444-|x2
A|-2-2-222--4-4-444--------------------|
E|-------------------------------------|


e|---------------------------------------|
B|---------------------------------------|
G|---------------------------------------|
D|-6-6-6668-8-8-8888-9-9-9999-9-9-9999---|x2
A|-7-7-7777-7-7-7777-7-7-7777-7-7-7777---|
E|-0-0-0000-0-0-0000-0-0-0000-0-0-0000---|
....the voice inside my head.



This is ea very good song  from blink 182 is very easy just listen to the son for the times. 


Please rate me!!!!!!!!  this is my first tab.
            
Submit corrections

↑ Back to top | Tablatures and chords for acoustic guitar and electric guitar, ukulele, drums are parodies/interpretations of the original songs. You may use it for private study, scholarship, research or language learning purposes only