» » »

Blind Guardian - Nightfall Tabs

Artists:  A B C D E F G H I J K L M N O P Q R S T U V W X Y Z # 

Nightfall Tabs

(ver. 1) Click to play this song!
Blind Guardian
 Rating:
4/5 (4 votes)

 Nightfall lessons Tabs too difficult? Try these video lessons and learn fast
 
                
Intro & first part: (Play it 2x)
--------------------------------------------------------------|
---------4------5--------------------------4------2-----------|
-------4---4------3-----4--3h4p3---------4---4------3---------|
--6--6-------6------5---------------6--6-------6------5-------|
---------------------------------------------------------7-6--|
--------------------------------------------------------------|
                                                                              

---------------------------------------|
----------------------9--7h9p7-5\7-----|
--9--8h9p8-6--4-6\8---9--8h9p8-6\8--8--|
------------------------------------8--|
---------------------------------------|
---------------------------------------|
                                                                              
Second part (Save me your speeches...): (Play it 2x)
-------------------------------------------------------------|
-------------------------------------------------------------|
----8-8-8-6-8-9--9-9-9-8h9p8-6-8-----------------3-3h4-3-----|
-6---------------------------------6-6-6---6--4----------6-4-|
-------------------------------------------------------------|
-------------------------------------------------------------|

                                                                              
Third part: (Like sorroful seaguls...):
--14b16-16--14---11-12-11------------------------------------------|
---------------------------14-12-14h16-14h16-14h16--14-12h14h12-11-|
                                                                              

-----------------------------------------------------------|
-----11----11-12--11h12p11------11----11--14-12h14p12------|
-13-----13-----------------13------13------------------13--|
-----------------------------------------------------------|
-----------------------------------------------------------|
-----------------------------------------------------------|
                                                                              

-----------------------------12-11----------|
-11----11-12--11h12p11-------------14-12-11-|
----13-----------------13-------------------|
--------------------------------------------|
--------------------------------------------|
--------------------------------------------|

Fourth part (Quietly it crept...):                                                                              
-------------------------------------9-8h9p8---------------------------|
-------6-------6-7-6-------6--9-11-9---------9-------------------------|
---6-----6---6--------5-6----------------------8-10-8--8-10----8-------|
-8---------8------------------------------------------------11---10-11-|
                                                                              

------------------------------------9-8h9p8-------------|
-------6-------6-7-6------6--9-11-9---------9-----------|
---6-----6---6--------5-6---------------------8-10-8--6-|
-8---------8--------------------------------------------|
--------------------------------------------------------|
--------------------------------------------------------|
                                                                              

Bbm    F#
Nightfall
 C#                      D#         F
Quietly it crept in and changed us all
Bbm    F#
Nightfall
 C#                      D#         F
Quietly it crept in and changed us all
Bbm    F#
Nightfall 
 C#      F#        C#      G#
Immortal land lies down in agony!


First solo:
-----9-8---------6-------------------------------------------------|
---------9-6-------7--6h7p6---6-----7--6h7p6---7-----7--6h7p6------|
---6------------------------8----------------8----------------8--5-|
-8------------8------------------8-----------------8---------------|
                                                                              

-----------------------------------|
-6--------------6/7--6-7-6-----6-9-|
---6---------6-------------6-------|
-----8-----8-----------------6-----|
-------9-8-------------------------|
-----------------------------------|
                                                                              

--------------------------------------------|
----------------------6-6-7--9--7h9p6h7-6---|
/10-10-10\8-8\6-6\5-----------------------8-|
--------------------------------------------|
--------------------------------------------|
--------------------------------------------|
                                                                              
Fifth part (How long shall we...): (Play it 2x)
--------------------------------------------------9------------|
----10-8-----8-10--8--------------10-8------8-10----8--6h8p6-5-|
-8-------11----------10--------8--------11---------------------|
------------------------11---8---------------------------------|
                                                                              
Sixth part (But even in silence...)
----15----------18|--------------------|----18--16-15-16-----18--16-15----|
-------16-15-18---|--18-16-16--18-16-16|-16---------------16-----------16-|
-17---------------|--------------------|----------------------------------|
------------------|--------------------|----------------------------------|
-Play-4x----------|--Play 2x-----------|---------Play 2x------------------|
------------------|--------------------|----------------------------------|

Bb
The words of a banished king
G#   D#     Bb
I   SWEAR  REVENGE!
            G#      D#          Bb
Filled with anger aflamed our hearts
        G#   D#      Bb  
Full of hate, full of pride
         G#          D#
I will scream for revenge


Bbm    F#
Nightfall
 C#                      D#         F
Quietly it crept in and changed us all
Bbm    F#
Nightfall
 C#                      D#         F
Quietly it crept in and changed us all
Bbm    F#
Nightfall 
 C#      F#        C#      G#
Immortal land lies down in agony!


Second Solo:
--------------------------------------------|
--------------------------------------------|
---10-8-10-10b11-10---8-11-10-8-----8-------|
-8-------------------------------10---11-10-|
--------------------------------------------|
--------------------------------------------|
                                                                              

--------------------------------------------|
--------------------------------------------|
---10-8-11-11b13-11---8-11-10-8-----8-------|
-8-------------------------------10---11-10-|
--------------------------------------------|
--------------------------------------------|
                                                                              

------------------------------------------------|
------------------------------------------------|
-----10----10-11-13-11h13p11-10-----10--8-------|
-11-----11-----------------------11-------10----| Play 2x
---------------------------------------------11-|
------------------------------------------------|
                                                                              

-----13--13--15--13------------13----------------------|
----------------------15--16-------16-15-16------------|
-15------------------------------------------15-15/17--|
-------------------------------------------------------|
-------------------------------------------------------|
-------------------------------------------------------|
                                                                              

-----13--13--15--13----------13----------|
---------------------15--16-----16-15----|
-15-----------------------------------15-|
-----------------------------------------|
-----------------------------------------|
-----------------------------------------|
                                                                              

-----18-16-14-13----------------------14--13h14r13--------|
-----------------16--14-16-16b18--14---------------14-----|
-15---------------------------------------------------13--|
----------------------------------------------------------|
----------------------------------------------------------|
----------------------------------------------------------|
                                                                              

-----18-16-14-13-------------------21-20-16-18----|
-----------------16--14-16-16b18---------------18-|
-15-----------------------------------------------|
--------------------------------------------------|
--------------------------------------------------|
--------------------------------------------------|
                                                                              

-11----------------------------------------10-13-14-13-10-11-13-14-------14--|
----13-11-10------------10-11-10--------10-----------------------------------|
--------------13-11--13----------13-10---------------------------------------|
                                                                              

------------------/13---------14-13h14-------------------|
-----13----13-14------14---------------16-14-13-14-16b18-|
-13-----13---------------13------------------------------|
---------------------------------------------------------|
---------------------------------------------------------|
---------------------------------------------------------|
                                                                              

----9-11-9--8------------8-9-8----------|
---------------11-11-----------11--9----|
-10----------------------------------8--| Play 2x
----------------------------------------|
----------------------------------------|
----------------------------------------|


Seventh part: (Vala he is that...)
-----------------------------------------------9-8----------------------------|
------------------------------------9--9h11p9------9--------------------------|
--10----------8-10-11-10---------10------------------8--10-8--8-10----8-------|
------8-10-11--------------10-11-----------------------------------11---10-11-|
                                                                              

----------------------------------------------9-8-----------------------------|
------------------------------------9--9h11p9-----9---------------------------|
-------------8-10-11-10----------10-----------------8--10-8--8-10----8--------|
-8---8-10-11---------------10-11----------------------------------11---10-11--|
                                                                              
Eighth part: (Oh I'm heir of the...)
---------------------------|
---------------------------|
----------6----------------|
-8----------6------8-------|
---8----------4------8-----|
-----6-----------------6---|
                                                                              

----------------------------------|
----------------------------------|
----------10-8----------8-11-8-10-|
-8-10-11-------10----10-----------| Play 2x
------------------11--------------|
----------------------------------|
                                                                              
Nineth part: (Farewell he said...)
--10--8----10--8----8--10------------8----------------8-----------|
--------11-------11-------11------10---10----------8----10----10--|
-------------------------------11---------11--7/9----------11-----|

Bbm    F#
Nightfall
 C#                      D#         F
Quietly it crept in and changed us all
Bbm    F#
Nightfall
 C#                      D#         F
Quietly it crept in and changed us all
Bbm    F#
Nightfall 
 C#      F#        C#      G#
Immortal land lies down in agony!
                                                                              
Final:
------------------------------------------------------------|
--------6------7------------------------6------4------------|
------6---6------5----6--5h6p5--------6---6------5----------|
-8--8-------8------7-------------8--8-------8------7--------|
-------------------------------------------------------9-8--|
------------------------------------------------------------|
                                                            | Play this part 2x                
                                                            |
------------------------------------------------------------|
----------------------------11--9h11p9--7--9----------------|
-11--10h11p10--8--6-8\11----11-10h11h10-8--10--10-----------|
-----------------------------------------------10-----------|
------------------------------------------------------------|
------------------------------------------------------------|
                                                                              

-------------------------------|
-------------------------------|
-10-11--10h11p10----10---------|
-----------------13-----10--11-|
-------------------------------|
-------------------------------|
            
Submit corrections


        Nightfall lessons Hard to play? Try these video lessons and learn fast Nightfall lessons
        
↑ Back to top | Tablatures and chords for acoustic guitar and electric guitar, ukulele, drums are parodies/interpretations of the original songs. You may use it for private study, scholarship, research or language learning purposes only