» » »

Blind Guardian - Lord Of The Rings Tabs

Artists:  A B C D E F G H I J K L M N O P Q R S T U V W X Y Z # 

Lord Of The Rings Tabs

(ver. 2) Click to play this song!
Blind Guardian
 Rating:
4/5 (4 votes)

 Lord Of The Rings lessons Tabs too difficult? Try these video lessons and learn fast
 
                (Intro)
Blind Guardian - Lord Of The Rings
----------------------------------

hehe

I'm getting a bit tired of all losers,
so here comes a correct tab of the intro;)

|-0----------------------------------------------|
|----0-----------------------------0-------------|
|-------0--------------0--------0-----------3----|
|----------0--------0--------4-------------------|
|----------------2--------1----------------------|
|-------------3----------------------------------|

|-0----------------------------------------------|
|----0-----------------------------0-----------0-|
|-------0--------------0--------0-----2-----2----|
|----------0--------0--------4-----------4-------|
|----------------2--------2----------------------|
|-------------3----------------------------------|

|-0----------------------------------------------|
|----0-----------------------------0-------------|
|-------0--------------0--------0-----------3----|
|----------0--------0--------4-------------------|
|----------------2--------1----------------------|
|-------------3----------------------------------|

|----------0-----------------------0-------------|
|-------1-----3--1--0-----------1-----1--0-------|
|----0-----------------0-----2-------------------|
|------------------------------------------------|
|-3-----------------------0----------------------|
|------------------------------------------------|
            
Submit corrections


        Lord Of The Rings lessons Hard to play? Try these video lessons and learn fast Lord Of The Rings lessons
        
↑ Back to top | Tablatures and chords for acoustic guitar and electric guitar, ukulele, drums are parodies/interpretations of the original songs. You may use it for private study, scholarship, research or language learning purposes only