» » »

Blind Guardian - Harvest Of Sorrow Tabs

Artists:  A B C D E F G H I J K L M N O P Q R S T U V W X Y Z # 

Harvest Of Sorrow Tabs

(ver. 2) Click to play this song!
Blind Guardian
 Rating:
4/5 (4 votes)

 Harvest Of Sorrow lessons Tabs too difficult? Try these video lessons and learn fast
 
                -------------------------------------------------------------------------------
                             HARVEST OF SORROW - BLIND GUARDIAN
-------------------------------------------------------------------------------


This is only the lead guitar's part.

RIFF A

D|---------------------------------------------------------------------------|
A|-8--8-10-7---12-8-10-8-10-8---------10-8-8--10-12-------12-10-8---7-8------|
F|----------------------------11-9-------------------11-9---------------9----|
C|---------------------------------------------------------------------------|
G|---------------------------------------------------------------------------|
D|---------------------------------------------------------------------------|

D|---------------------------------------------------------------------------|
A|-8--7----------------------------------------------------------------------|
F|----------9----------------------------------------------------------------|
C|--------9------------------------------------------------------------------|
G|---------------------------------------------------------------------------|
D|---------------------------------------------------------------------------|

RIFF B (X2)

D|------------------------------------------------------7--------------------|
A|-8--8-10-7----7-8------7-8-7-8-7------10-8-8-----8-10-----8-10-8----7-8----|
F|------------------9-----------------------------------------------------9--|
C|---------------------------------------------------------------------------|
G|---------------------------------------------------------------------------|
D|---------------------------------------------------------------------------|

RIFF C

D|---------------------------------------------------------------------------|
A|-------3-6-5-6-5-3-5-3-----------------------------------------------------|
F|-----5---------------------------------------------------------------------|
C|---5-----------------------------------------------------------------------|
G|-3-------------------------------------------------------------------------|
D|---------------------------------------------------------------------------|


RIFF B (X2)


SOLO 1

D|-----------------------------------------------------------------7-8-10-8--|
A|-7-8-7-8-7----------------------------------7-8-10-7-8-7-8-7-5-7-----------|
F|-----------9-7-------7------------------7-9--------------------------------|
C|---------------9--7-----9-7-5-7-7-9-7-5------------------------------------|
G|---------------------------------------------------------------------------|
D|---------------------------------------------------------------------------|

D|-7-8-7------------------------7---------------------------------------------|
A|-------8-7-----7-8-7---7-8-10---10-8-7-----7-8-7---------------------------|
F|-----------9-7-------9-----------------9-7-------9-11-7-9------------------|
C|----------------------------------------------------------9-7----7-9-10----|
G|--------------------------------------------------------------10-----------|
D|---------------------------------------------------------------------------|

D|---------------------------------------------------------------------------|
A|----------------------10---------------------------------------------------|
F|----9---9-11-12--11-9----12-11-9-------------------------------------------|
C|-12--12--------------------------------------------------------------------|
G|---------------------------------------------------------------------------|
D|---------------------------------------------------------------------------|


RIFF B (X2)


RIFF C


SOLO 2

D|-2-3-2-3-2-----------------------------------------------------------------|
A|-----------3-------------------------------------5---5-7-8--7-5-10---------|
F|-------------2-4--0--2-4----------------2-4-5-7--7----------------12-11-9--|
C|--------------------------4--5-4-5-4-2-5-----------------------------------|
G|---------------------------------------------------------------------------|
D|---------------------------------------------------------------------------|

Repeat the follow part four times

D|---------------------------------------------------------------------------|
A|-12-8---8-12-13-12-10-12-8---12-8---8-10-12-10-8-10-8----------------------|
F|------9--------------------9------9-------------------11-9-----------------|
C|---------------------------------------------------------------------------|
G|---------------------------------------------------------------------------|
D|---------------------------------------------------------------------------|
            
Submit corrections


        Harvest Of Sorrow lessons Hard to play? Try these video lessons and learn fast Harvest Of Sorrow lessons
        
↑ Back to top | Tablatures and chords for acoustic guitar and electric guitar, ukulele, drums are parodies/interpretations of the original songs. You may use it for private study, scholarship, research or language learning purposes only