Home » B » Bleu Edmondson »

Bleu Edmondson - Finger On The Trigger Tabs

Artists:  A B C D E F G H I J K L M N O P Q R S T U V W X Y Z # 

Finger On The Trigger Tabs

(ver. 1) Click to play this song!
Bleu Edmondson
Finger on the Trigger

Intro: F C G (4x) [riff starts on the 2nd time through]
e-------------------------------------|
B-------------------------------------|
G----7^--pb7---------------------7-7~-|
D----7^---pb7-(7)p5-5------5—7/9------|
A----------------------5/7------------|
E-------------------------------------|

e---------------------------------------------|
B-----8--------8-----8~--8/10-10\8------------|
G-7-9-------7h9—-7h9-----------------9p7------|
D----------------------------------------9\5~-|
A---------------------------------------------|
E---------------------------------------------|

e------------------10-------------------10--------10^^~---|
B-------------------10---10----------------8------10^^~---|
G-------7-7---7-------9^---pb9-9p7-7--------9—7-----------|
D--5/9-----9----------------------------------------------|
A---------------------------------------------------------|
E---------------------------------------------------------|

Here is the intro riff. this is my first tab so if it is a little off sorry. I'm 
about 98% confident this is pretty close to what's on the album. Let me know if 
anything needs to be changed, or change it yourself and submit it.
thanks and goodluck!
            
Submit corrections

↑ Back to top | Tablatures and chords for acoustic guitar and electric guitar, ukulele, drums are parodies/interpretations of the original songs. You may use it for private study, scholarship, research or language learning purposes only